Guitar Tabs for Somebody Told Me - Charlie Puth

(/) Slide Up  (\) Slide Down  (h) Hammer On  (p) Pull Off  (b) Bend (r) Release (v) Vibrato (x) Muted

Charlie Puth Somebody Told Me Tabs

Scale : C#Minor

chords : C#m F#m G#m E A B

I was just with you on ...                       family
E|-----------------------------------------------------------
B|-----------------------------------------------5--4--------
G|--1--2--4--4--4--4--4--4--1-----1--2--4--4--4--------4-----
D|-----------------------------------------------------------
A|-----------------------------------------------------------
E|-----------------------------------------------------------

But on the way ...                   phone
E|-----------2-----4-----------------2--2--2--4--
B|-----------------------------------------------
G|--4--4--4--------------4--4--4--4--------------
D|-----------------------------------------------
A|-----------------------------------------------
E|-----------------------------------------------

Couldnt help ..                                  nobody
E|-----------------------------------------------0-----------
B|--------------------------------------------------4--------
G|--1--2--4--4--4--4--4--4--1-----1--2--4--4--4--------4-----
D|-----------------------------------------------------------
A|-----------------------------------------------------------
E|-----------------------------------------------------------

I knew the rumors ...                         rumors
E|-----------2-----4--------------------2-----0--------
B|-----------------------------------------------2-----
G|--4--4--4--------------4--4--4--4--4-----------------
D|-----------------------------------------------------
A|-----------------------------------------------------
E|-----------------------------------------------------

Maybe I should ...                            love
E|--------------------------------------------------
B|---4/5--5--4------------------4/5--5--4-----------
G|--------------4--1-----1-----------------4--1-----
D|--------------------4--------------------------4--
A|--------------------------------------------------
E|--------------------------------------------------

Maybe I should ...                                  one
E|--------------------------------------------------------
B|---4/5--5--4--------------------------------------------
G|--------------4--1-----1-----------------1--------------
D|--------------------4--------2--4--2--4------2/4--2-----
A|--------------------------------------------------------
E|--------------------------------------------------------

Somebody told me ..
E|---2/4--4--4---2/4--2--0--0-----2--0--2--0--2--0--4--0--0-----
B|-----------------------------------------------------------2--
G|--------------------------------------------------------------
D|--------------------------------------------------------------
A|--------------------------------------------------------------
E|--------------------------------------------------------------

Cant believe I                          myeeaayyeeaayyee  girl
E|---2/4--4--4---2/4--2--0--0--------2--0--4--5--4--5--4--0--------
B|-----------------------------2------------------------------5\2--
G|-----------------------------------------------------------------
D|-----------------------------------------------------------------
A|-----------------------------------------------------------------
E|-----------------------------------------------------------------

Paste any tab in acousterr's tab maker and we'll play it !!!
Now supports capo and sound effects for vibrato/pull-off/hammer/bends/mutes etc !!! Checkout help section
tabs and chords, guitar tabs, music contests, music covers, songsterr, reverbnation, renditions, tabulature, bollywood chords, ultimate guitar, yousician, guitar lessons, torrins, fender, gibson, acoustic guitar, electric guitar, youtube covers, gootar, guitar tuner, A-Z tabs, 911 tabs