Guitar Tabs for Boy - Charlie Puth

(/) Slide Up  (\) Slide Down  (h) Hammer On  (p) Pull Off  (b) Bend (r) Release (v) Vibrato (x) Muted

Tabs for Boy By Charlie Puth

Intro
E|--------------1-----1-----4-----6-----6-----4-----------1-----------------
B|--2-----4-----------------------------------------4-----------4-----2-----
G|--------------------------------------------------------------------------
D|--------------------------------------------------------------------------
A|--------------------------------------------------------------------------
E|--------------------------------------------------------------------------

These guys... up and leave                       A#m
E|-----------------------------------------------1--
B|--2--2--2--2-----------------1--1--1--2--2-----2--
G|--------------1--1--1--1--1--------------------3--
D|-----------------------------------------------3--
A|-----------------------------------------------1--
E|--------------------------------------------------

For the first tym ..              C#      throw away the key   
E|--------------------------------4-----------------------------------
B|--2--4---4/6--2-----------2-----6-----2--4---4/6--2-----------2-----
G|------------------8\3--3--------6---------------------8\3--3--------
D|--------------------------------6-----------------------------------
A|--------------------------------4-----------------------------------
E|--------------------------------------------------------------------

you'hv been in ...
E|--------------------------------------------
B|--2--2--2--2--------------1--1--1--2--2-----
G|--------------1--1--1--1--------------------
D|--------------------------------------------
A|--------------------------------------------
E|--------------------------------------------

cause you talk..                  C#   kiss me differntly
E|--------------------------------4--------------------------------
B|--2--4---4/6--2-----------2-----6-----2--4---4/6--2-----------2--
G|------------------8\3--3--------6---------------------8\3--3-----
D|--------------------------------6--------------------------------
A|--------------------------------4--------------------------------
E|-----------------------------------------------------------------


Now i dont' ...                   D#m
E|-----------1---1/4--1--4--6-----6-----
B|---4/6--4-----------------------7-----
G|--------------------------------8-----
D|--------------------------------8-----
A|--------------------------------6-----
E|--------------------------------------

After you ...                  D#m
E|--6--4--6--6--4--8---9p6-----6-----
B|-----------------------------7-----
G|-----------------------------8-----
D|-----------------------------8-----
A|-----------------------------6-----
E|-----------------------------------


After you love me so good ..   F#
E|--2--1--2--1-----1-----------2-----
B|--------------4-----4--------2-----
G|-----------------------------3-----
D|-----------------------------4-----
A|-----------------------------4-----
E|-----------------------------2-----

How you r gonna                         A#m
E|--------------1-----------------------1-----
B|-----------------1--1--1-----1--------2-----
G|--1--1--1--1--------------3-----3-----3-----
D|--------------------------------------3-----
A|--------------------------------------1-----
E|--------------------------------------------

    G#   You tell me                 G#    I gave you
E|--4-----2--4--4--4--2--1-----------4-----2--4--4--4--2-----------
B|--4-----------------------2--4-----4--------------------2--4-----
G|--5--------------------------------5-----------------------------
D|--6--------------------------------6-----------------------------
A|--6--------------------------------6-----------------------------
E|--4--------------------------------4-----------------------------

    G#   Baby how do yu treat me              Like a boy
E|--4-----2--4--4--2--1---------1/2--1-----------------
B|--4--------------------2--4-----------------2--1-----
G|--5-----------------------------------------------3--
D|--6--------------------------------------------------
A|--6--------------------------------------------------
E|--4--------------------------------------------------
tabs and chords, guitar tabs, music transcription, music technology, deep learning, music information retrieval, transcribe into tabs & chords, chordify, music renditions, songsterr, reverbnation, tabulature, bollywood chords, ultimate guitar, yousician, guitar lessons, acoustic guitar, electric guitar, guitar tuner, 911 tabs