Guitar Tabs for Attention Charlie Puth Guitar Tabs

(/) Slide Up  (\) Slide Down  (h) Hammer On  (p) Pull Off  (b) Bend (r) Release (v) Vibrato (x) Muted

Attention Charlie Puth Guitar Tabs

You've been runnin' 'round, runnin' 'round, runnin' 'round
Throwin' that dirt all on my name
E|--------------------------------------------------------
B|--------4--4--4--2--2--2--------------------------------
G|--------------------------3--3--3--1--1--1-----1--3-----
D|--1--1--------------------------------------4--------1--
A|--------------------------------------------------------
E|--------------------------------------------------------

'Cause you knew that I, knew that I, knew that I'd
Call you up
E|--------------------------------------------
B|--------4--4--4--2--2--2--------------------
G|--------------------------3--3--3--1--3--3--
D|--1--1--------------------------------------
A|--------------------------------------------
E|--------------------------------------------

Paste any tab in acousterr's tab maker and we'll play it !!!
Now supports capo and sound effects for vibrato/pull-off/hammer/bends/mutes etc !!! Checkout help section


You've been going 'round, going 'round, going 'round
Every party in LA
'Cause you knew that I, knew that I, knew that I'd
Be at one,

Same as above lines

I know that dress is karma, perfume regret
E|--------------------------------------
B|--------------------------------------
G|--------------------------------------
D|-----1--3--4--3--1--------------1--3--
A|--1-----------------1-----4--1--------
E|-----------------------4--------------


You got me thinking 'bout when you were mine
E|-----------------------------
B|-----------------------------
G|-----1--1--1--1-----1--3--3--
D|--4--------------4-----------
A|-----------------------------
E|-----------------------------


And now I'm all up on ya, what you expect?
But you're not coming home with me tonight

Same as above lines


You just want attention, you don't want my heart
E|-----------------------------------
B|-----------------------------------
G|--3--1--------------3--1-----1--1--
D|--------4--3--3--1--------4--------
A|-----------------------------------
E|-----------------------------------


Maybe you just hate the thought of me with someone new
E|-----------------------------------------
B|-----------------------------------------
G|--1-----------1--1-----------------1-----
D|-----4--3--4--------3--3--------------4--
A|--------------------------4--4--1--------
E|-----------------------------------------




https://youtu.be/j-SNT9th2aY
tabs and chords, guitar tabs, music contests, music covers, songsterr, reverbnation, renditions, tabulature, bollywood chords, ultimate guitar, yousician, guitar lessons, torrins, fender, gibson, acoustic guitar, electric guitar, youtube covers, gootar, guitar tuner, A-Z tabs, 911 tabs