Guitar Tabs for Some Strange Way

(/) Slide Up  (\) Slide Down  (h) Hammer On  (p) Pull Off  (b) Bend (r) Release (v) Vibrato (x) Muted

Tabs for Song : 
BPM : 350

Chorus 
E|-----------------------------------------------------------------------------------------------------------------------------------------------------------------------------------------------------------------------------------------------------------------------------------------------------------------------------------------------------------------------------------------------------
B|-----------------------------------------------------------------------------------------------------------------------------------------------------------------------------------------------------------------------------------------------------------------------------------------------------------------------------------------------------------------------------------------------------
G|-----------------------------------------------------------------------------------------------------------------------------------------------------------------------------------------------------------------------------------------------------------------------------------------------------------------------------------------------------------------------------------------------------
D|-----------------------------------------------------------------------------------------------------------------------------------------------------------------------------------------------------------------------------------------------------------------------------------------------------------------------------------------------------------------------------------------------------
A|--------------------------------------------------------------------------------------------------------------5-----------------------5-----------------------5-----------------------5-----------------------4-----------------------4-----------------------4-----------------------4-----------------------5-----------------------5-----------------------5-----------------------5--------------
D|--0-----0--0--0-----0--0-----0--0-----0--0--0--0--0-----0--0--0-----0--0-----0--0-----0--0--0--0--5-----5--5--------5--5-----5--5-----------5--5--5-----5--5--------5--5-----5--5-----------5--5--4-----4--4--------4--4-----4--4-----------4--4--4-----4--4--------4--4-----4--4-----------4--4--5-----5--5--------5--5-----5--5-----------5--5--5-----5--5--------5--5-----5--5-----------5--5--0--

Verse
E|-----------------------------------------------------------------------------------------------------------------------------------------------------------------------------------------------------
B|-----------------------------------------------------------------------------------------------------------------------------------------------------------------------------------------------------
G|-----------------------------------------------------------------------------------------------------------------------------------------------------------------------------------------------------
D|-----------------------------------------------------------------------------------------------------------------------------------------------------------------------------------------------------
A|-----------------------------------------------------------------------------------------------------------------------------------------------------------------------------------------------------
D|--0--0-----0--0-----0--0-----0--0-----------------0--0-----0--0-----0--0-----0--0-----------------5--5-----5--5-----5--5-----5--5-----------------5--5-----5--5-----5--5-----5--5-----------------0--

Prechorus + Bridge
E|--------------------------------------------------------------------------------------------------------------------------------------------------------------------------------------------------------------------------------------------------------------------------------------------------------------
B|--------------------------------------------------------------------------------------------------------------------------------------------------------------------------------------------------------------------------------------------------------------------------------------------------------------
G|--------------------------------------------------------------------------------------------------------------------------------------------------------------------------------------------------------------------------------------------------------------------------------------------------------------
D|--------------------------------------------------------------------------------------------------------------------------------------------------------------------------------------------------------------------------------------------------------------------------------------------------------------          
A|-----------5-----------------4--------4--------------------5-----------------4--------4--5-----------------5-----------------4--------4--------------------5--------------------------------------------------------------------------------------------------------------------------------------------------
D|--4--------------4--2--------------2--------2-----4--------------4--2--------------2--------------4--------------4--2--------------2--------2-----4--------------4--5-----------------------------------------2-----2--------------4-----4--4--------------------5-----5--------------7-----7--7-------------- 



Use manual mode to free up cursor. Paste any tab in acousterr tab maker and we'll play it !!!
tabs and chords, guitar tabs, music transcription, music technology, deep learning, music information retrieval, transcribe into tabs & chords, chordify, music renditions, songsterr, reverbnation, tabulature, bollywood chords, ultimate guitar, yousician, guitar lessons, acoustic guitar, electric guitar, guitar tuner, 911 tabs