Guitar Tabs for My Way

(/) Slide Up  (\) Slide Down  (h) Hammer On  (p) Pull Off  (b) Bend (r) Release (v) Vibrato (x) Muted

Tabs for Song : 
BPM : 200

Song lyrics here
E|-----(2)------------(2)---2--2--0--2-----2--2--2--(0)---2--3-----3--3--2--3-----3--3--2--3--
B|--------------3-----------------------------------------------------------------------------
G|--2--------2-----2--------------------------------------------------------------------------
D|--------------------------------------------------------------------------------------------
A|--------------------------------------------------------------------------------------------
E|--------------------------------------------------------------------------------------------
And now , the end is near  And so i face, the final Curtain My friend I'll say it clear I'll state my case
E|-----5--5--0--3--2--------5-----5--5--5--4--5-----5--2--5--3-----3--3--3--2--5--(3)
B|-----------------------3-----3-----------------------------------------------------
G|-----------------------------------------------------------------------------------
D|-----------------------------------------------------------------------------------
A|-----------------------------------------------------------------------------------
E|-----------------------------------------------------------------------------------
of which I'm certain  I lived, a life thats full, I've Traveled each and every highway

Chorus
E|--5--2-----2--2--3--2--0--------------(0)---
B|--------------------------------2--3-----(3)
G|-----------------------------2--------------
D|--------------------------------------------
A|--------------------------------------------
E|--------------------------------------------
but more, much more than this I did it my way
E|--5--2-----2--5--2--0--2-----2--2--0--2-----2--2--0-----------2--3-----3--3--3--2--3--
B|-----------------------------------------------------5--4-----------------------------
G|--------------------------------------------------------------------------------------
D|--------------------------------------------------------------------------------------
A|--------------------------------------------------------------------------------------
E|--------------------------------------------------------------------------------------
Regrets, I've had a few, but then agian, too few to mention, I did what I had to do
E|--3--3--2--3-----5--5--0--3--2--
B|--------------------------------
G|--------------------------------
D|--------------------------------
A|--------------------------------
E|--------------------------------
and saw it through, without exemption
E|-----5-----5--5--5--4--5-----5--2--5--3-----3--3--3--2--5--3--
B|--3-----------------------------------------------------------
G|--------------------------------------------------------------
D|--------------------------------------------------------------
A|--------------------------------------------------------------
E|--------------------------------------------------------------
I planned, each charted course, each careful step along the byway
E|--5--2-----2--2--3--2--0--------------0-----
B|--------------------------------2--3-----3--
G|-----------------------------2--------------
D|--------------------------------------------
A|--------------------------------------------
E|--------------------------------------------
But more much more than this, I did it my way
E|-----------------------2--------------------------------------3-----------------3--
B|--------------------------------------3--------0--1--0-----0-----1--0-----0--3-----
G|--------0--2--2-----2-----4--2--0--2--------2--------------------------2-----------
D|--4--4-----------------------------------------------------------------------------
A|-----------------------------------------------------------------------------------
E|-----------------------------------------------------------------------------------
Yes, there were times, I'm sure you know, when i bit off more then I could chew
E|-----------------------------------0-----------0--0-----------0--0--2--0-----
B|--0--2--3--3-----3--3--0--2-----2--------2--3-----------2-----------------3--
G|-----------------------------------------------------2-----2-----------------
D|-----------------------------------------------------------------------------
A|-----------------------------------------------------------------------------
E|-----------------------------------------------------------------------------
but through it all, when there was doubt, I ate it All and spit it out
E|-----------------------0-----------------0--0-----
B|--3--3-----3--------3-----3--2-----2--3--------(3)
G|--------4--------0--------------------------------
D|--------------------------------------------------
A|--------------------------------------------------
E|--------------------------------------------------

I faced it all, and I stood tall, and did it my way

Song lyrics here
E|--
B|--
G|--
D|--
A|--
E|--

Paste any tab in acousterr's tab maker and we'll play it !!!
Now supports capo and sound effects for vibrato/pull-off/hammer/bends/mutes etc !!! Checkout help section
tabs and chords, guitar tabs, music transcription, music technology, deep learning, music information retrieval, transcribe into tabs & chords, chordify, music renditions, songsterr, reverbnation, tabulature, bollywood chords, ultimate guitar, yousician, guitar lessons, acoustic guitar, electric guitar, guitar tuner, 911 tabs