Guitar Tabs for Strange Creatures

(/) Slide Up  (\) Slide Down  (h) Hammer On  (p) Pull Off  (b) Bend (r) Release (v) Vibrato (x) Muted

Tabs for Song : 
D|----------------0-----------5---3---0-------------------------|
A|---0h3h5---5-------3--3p0---0---0---0-------------------------|
G|--------------------------------------------------------------| x3
D|---0----------0----0--------5---3---0-------------------------|
A|--------------------------------------------------------------|
D|--------------------------------------------------------------|

D|----------------0-----------5---3---0-------------------------|
A|---0h3h5---5-------3--3p0---0---0---0-------------------------|
G|--------------------------------------------------------------| x3
D|--------------0----0------------------------------------------|
A|--------------------------------------------------------------|
D|---0------------------------5---3---0-------------------------|
                     D  D  U  U  D                 D  U  U  D
D|-------------------0--0--0--0--0-----------------0--0--0--0------|
A|-------------------0--0--0--0--0-----------------0--0--0--0------|
G|-------------------2--2--2--2--2-----------------2--2--2--2------|
D|-------0h3p0---0---0--0--------0--------0--------0--------0------|x3
A|---0h3-------3----------------------0h3---3----------------------|
D|--------------------------------------------3-0------------------|
                     D  D  U  U  D                 

D|----------------0-----------5---3---0-------------------------|
A|---0h3h5---5-------3--3p0---0---0---0-------------------------|
G|--------------------------------------------------------------| x7
D|---0----------0----0------------------------------------------|
A|--------------------------------------------------------------|
D|----------------------------5---3---0-------------------------|

D|-----------3p0--------------------------------------------------------------------|
A|---0h3h5-5-----5p3p0--3p0---------------------------------------------------------|
G|--------------------------2p0-----------------------------------------------------|
D|---0--------------------------5p3p0--3p0---0h3p0----------------------------------|
A|-----------------------------------------5-------5p3p0--3p0---0h3p0---------------|
D|------------------------------------------------------------5-------5p3p0-3-3-0r--|






tabs and chords, guitar tabs, music transcription, music technology, deep learning, music information retrieval, transcribe into tabs & chords, chordify, music renditions, songsterr, reverbnation, tabulature, bollywood chords, ultimate guitar, yousician, guitar lessons, acoustic guitar, electric guitar, guitar tuner, 911 tabs