Guitar Tabs for Solo Referance

(/) Slide Up  (\) Slide Down  (h) Hammer On  (p) Pull Off  (b) Bend (r) Release (v) Vibrato (x) Muted

Tabs for Song : 
BPM : 200

Song lyrics here 
E|--12-14-12-------------------------------12----14\0---0\16-
B|-----------15-16----------15\20-------12----14-14\0---0\16-
G|-----------------16-15-14-------12\14-------12-------------
D|-----------------------------------------------------------
A|-----------------------------------------------------------
E|-----------------------------------------------------------

E|--14-14-15-15-
B|--------------
G|--14-14-15-15-
D|--------------
A|--------------
E|--------------

E|--15-15-15-15-15-16-16-16-16-16-16-16-16-16-16-16-16-16-16-16-16-16-16-16-16-16-16-16-16-16-16-16-16-16-
B|-----------------------------------15-15-15-15-15-15-15-15-15-15-15-15----------------------------------
G|--15-15-15-15-15-16-16-16-16-16-16-16-16-16-16-16-16-16-16-16-16-16-16-16-16-16-16-16-16-16-16-16-16-16-
D|--------------------------------------------------------------------------------------------------------
A|--------------------------------------------------------------------------------------------------------
E|--------------------------------------------------------------------------------------------------------

E|--16-16-16-16-16-16-16-16-16-16-16-16-16-16-16-16-16-16-16-16-16-
B|-----------15-15-15-15-15-15-15-15-15-15-15-15-------------------
G|--16-16-16-16-16-16-16-16-16-16-16-16-16-16-16-16-16-16-16-16-16-
D|-----------------------------------------------------------------
A|-----------------------------------------------------------------
E|-----------------------------------------------------------------

Song lyrics here 
E|-----------------------------------------------------------------------------------------15-12-15-0--12-0--12-0--15-15-12-0--15-0--12-15-0--12-15-0--12-0--15-15\22----
B|--15\18-15-------12-15-------------------------------------12-14-------------------15-13-------------------------------------------------------------------------------
G|-----------14-12-------14\20----14p12-------14p12----14\18-------14p12----12-14\20-------------------------------------------------------------------------------------
D|-----------------------------------------14----------------------------14----------------------------------------------------------------------------------------------
A|-----------------------------------------------------------------------------------------------------------------------------------------------------------------------
E|-----------------------------------------------------------------------------------------------------------------------------------------------------------------------

E|-----------------------------------------------------------------------------------15-12----------------12-15-15-12----------------12-15-17-15----------------15-17-17-15----------------15-17-
B|------------------7/5---5h7---7\12-7--5--------------------------------------------------14-13----13-14-------------14-13----13-14-------------17-16----16-17-------------17-16----16-17-------
G|---------9\12-7--------------------------7--5--------------------------------------------------13-------------------------13-------------------------16-------------------------16-------------
D|-----------------------------------------------7--5--4-----------------------------------------------------------------------------------------------------------------------------------------
A|--------------------------------------------------------7--6--5--------------------------------------------------------------------------------------------------------------------------------
E|-----------------------------------------------------------------7--5--4--2--0-----------------------------------------------------------------------------------------------------------------

E|--17-15----------------15-17-19-16----------------16-19----------------------------------------------------------19-------------------------------17-19----------------------------
B|--------17-16----16-17-------------18-17----17-18-------19-18-17----------------------------------------------17----17-------------------------19-------17-------------------------
G|--------------16-------------------------17----------------------20-19-17----------------------------------19----------19-------------------17-------------19----------------------
D|--------------------------------------------------------------------------20-19-17----------------------17----------------17-------------19-------------------17-------------------
A|-----------------------------------------------------------------------------------19-18-17----------19----------------------19-------17-------------------------19----------------
E|--------------------------------------------------------------------------------------------20-19-17----------------------------17-19-------------------------------17-19-17-15-12-

E|--------------------------------------------------12----------------------12----------12-15----------------12-15-15-15-15-15-15-15-12----------------------------------------------------------------------------------------
B|--------------------------------------------------------------12----------------------------14-13----13-14----------------------------14-13----------------------------------------------------------------------------------
G|--------------------------------------12----------------------------------------------------------13----------------------------------------13-15----------------------------------------------------------------------------
D|--------------------------12----------------------------------------------------------------------------------------------------------------------15-13-15-13----------------------------------------------------------------
A|--------------12----------------------------------------------------------------------------------------------------------------------------------------------15-13----------------------------------------------------------
E|--12-12-12-12----12-12-12----12-12-12----12-12-12----12-12-12----12-12-12----12-12-12-------------------------------------------------------------------------------15-13-12-13-12-10-10-8--10-8--8--6--8--8--6--4--2--0--0--

E|--14-10----------10-14-10----------10-14-10----------10-14-10----------10-14-10----------10-14-
B|--------12----12----------12----12----------12----12----------12----12----------12----12-------
G|-----------11----------------11----------------11----------------11----------------11----------
D|-----------------------------------------------------------------------------------------------
A|-----------------------------------------------------------------------------------------------
E|-----------------------------------------------------------------------------------------------

E|--12-9-----------9--12-9-----------9--12-9-----------9--12-9-----------9--12-9-----------9--12-
B|--------10----10----------10----10----------10----10----------10----10----------10----10-------
G|-----------9-----------------9-----------------9-----------------9-----------------9-----------
D|-----------------------------------------------------------------------------------------------
A|-----------------------------------------------------------------------------------------------
E|-----------------------------------------------------------------------------------------------

E|--15-12----------12-15-12----------12-15-12----------12-15-12----------12-15-12----------12-15-
B|--------13----13----------13----13----------13----13----------13----13----------13----13-------
G|-----------14----------------14----------------14----------------14----------------14----------
D|-----------------------------------------------------------------------------------------------
A|-----------------------------------------------------------------------------------------------
E|-----------------------------------------------------------------------------------------------

E|--14-10----------10-14-10----------10-14-12-7-----------7--12-7-----------7--12-7-----------7--12-
B|--------12----12----------12----12-------------8-----8-----------8-----8-----------8-----8--------
G|-----------11----------------11-------------------9-----------------9-----------------9-----------
D|--------------------------------------------------------------------------------------------------
A|--------------------------------------------------------------------------------------------------
E|--------------------------------------------------------------------------------------------------

E|--10-7-----------7--10-7-----------7--10-7--4-----------4--7--4-----------4--7--4-----------4--7--
B|--------7-----7-----------7-----7--------------5-----5-----------5-----5-----------5-----5--------
G|-----------7-----------------7--------------------4-----------------4-----------------4-----------
D|--------------------------------------------------------------------------------------------------
A|--------------------------------------------------------------------------------------------------
E|--------------------------------------------------------------------------------------------------

E|--3--0-----------0--3--0-----------0--3--0-----------0--3--0-----------0--3--0-----------0--3--0-----------0--3--
B|--------1-----1-----------1-----1-----------1-----1-----------1-----1-----------1-----1-----------1-----1--------
G|-----------0-----------------0-----------------0-----------------0-----------------0-----------------0-----------
D|-----------------------------------------------------------------------------------------------------------------
A|-----------------------------------------------------------------------------------------------------------------
E|-----------------------------------------------------------------------------------------------------------------

E|--0-----------0--3--0-----------0--3--0-----------0--3--0-----------0--3--0-----------0--3--0-----------0--3--0-----------0--3--
B|-----1-----1-----------1-----1-----------1-----1-----------1-----1-----------1-----1-----------1-----1-----------1-----1--------
G|--------2-----------------2-----------------2-----------------2-----------------2-----------------2-----------------2-----------
D|--------------------------------------------------------------------------------------------------------------------------------
A|--------------------------------------------------------------------------------------------------------------------------------
E|--------------------------------------------------------------------------------------------------------------------------------

E|--6-----------3--6--3-----------3--6--3--------3--6--3-----------3--6--9--6-----------6--9--6-----------6--9--10-11-12-13-14-15-16-17-18-19-20-21-22-
B|-----4-----4-----------4-----4-----------4--------------4-----4--------------7-----7-----------7-----7-----------------------------------------------
G|--------3-----------------5-----------------6--------------5--------------------6-----------------6--------------------------------------------------
D|-----------------------------------------------------------------------------------------------------------------------------------------------------
A|-----------------------------------------------------------------------------------------------------------------------------------------------------
E|-----------------------------------------------------------------------------------------------------------------------------------------------------

E|--22-19----------19-22-19----------19-22-19----------19-22-19-16----------16-19----------16-19-21----------19-21-22-------------------------------
B|--------20----20----------20----20----------20----20-------------17----17-------18----18----------19----19----------21----------------------------
G|-----------19----------------19----------------21-------------------16-------------17----------------18----------------21-------------------------
D|--------------------------------------------------------------------------------------------------------------------------21----------------------
A|-----------------------------------------------------------------------------------------------------------------------------21-20----------------
E|-----------------------------------------------------------------------------------------------------------------------------------19-17-15-13-12-

E|--------------------------------------------------------------------------------------------------------------------------------------------------------------------15-12-
B|--------------------------------------------------------------------------------------------------------------------------------------------------------------12-15-------
G|--------------------------------------------------------------------------------------------------------------------------------------------------------12-15-------------
D|--15-12----------12-15-12----------12-15-12----------12-15-12----------12-15-11-8-----------8--11-8-----------8--11-15-12----------12-15----------12-15-------------------
A|--------13----13----------13----13----------13----13----------13----13-------------9-----9-----------9-----9--------------13----13-------13----13-------------------------
E|-----------12----------------12----------------12----------------14-------------------8-----------------8--------------------11-------------11----------------------------

E|--12----------------------------21-22-20-18-16-14-12-10-8--6--4--2--0--------------------------------------------------------------22-21-21-20-20-19-19-17-17-18-18-16-16-17-17-15-15-16-16-14-14-15-15-13-13-14-14-12-12-13-13-11-11-12-12----
B|-----13----------------------20----------------------------------------0--------------------------------------------------------22-------------------------------------------------------------------------------------------------------------
G|--------14----------------19----------------------------------------------0--------------------------------------------------22----------------------------------------------------------------------------------------------------------------
D|-----------15----------18----------------------------------------------------0--------------------------------------------22-------------------------------------------------------------------------------------------------------------------
A|--------------16----17----------------------------------------------------------0--------------------------------------22----------------------------------------------------------------------------------------------------------------------
E|-----------------16----------------------------------------------------------------0--2--4--6--8--10-12-14-16-18-20-22----------------------------------------------------------------------------------------------------------------------0--

E|--------------------------------0--3--3--0--------------------------------------------------------------------------0--4--3--1--0--
B|--------------------------0--3--------------3--0-----------------------------------------------------------0--3--4-----------------
G|--------------------0--2--------------------------2--0--------------------------------------------0--2--3--------------------------
D|--------------0--2--------------------------------------2--0-----------------------------0--2--3-----------------------------------
A|--------0--2--------------------------------------------------2--0--------------0--2--3--------------------------------------------
E|--0--3--------------------------------------------------------------3--0--2--3-----------------------------------------------------

E|--0--3--6--8--10-12-------------------------------------------------------------------------------5-----------------
B|--------------------13-------------------------------------------------------------------------5--------------------
G|-----------------------14-------------------------------------------------------------------5-----------------------
D|--------------------------15-13-12-10-9--7--6--4--3--5--4--3--4--5--4--3--4--5--4--3--4--5--------------------------
A|--------------------------------------------------------------------------------------------------------------------
E|-----------------------------------------------------------------------------------------------------0--0--0--0--0--

E|--14-10----------10-14-10----------10-14-15-12----------12-15-12----------12-15-18-15----------15-18-15----------15-18-22-19----------19-22-19----------19-
B|--------12----12----------12----12-------------13----13----------13----13-------------17----17----------17----17-------------20----20----------20----20----
G|-----------11----------------11-------------------14----------------14-------------------16----------------16-------------------21----------------21-------
D|-----------------------------------------------------------------------------------------------------------------------------------------------------------
A|-----------------------------------------------------------------------------------------------------------------------------------------------------------
E|-----------------------------------------------------------------------------------------------------------------------------------------------------------

E|--22-21-20-21-19-20-18-19-17-18-16-17-15-16-14-15-13-14-13-12-13-11-12-11-10-
B|-----------------------------------------------------------------------------
G|-----------------------------------------------------------------------------
D|-----------------------------------------------------------------------------
A|-----------------------------------------------------------------------------
E|-----------------------------------------------------------------------------

E|--14----------10-14-12-7-----------7--12-7-----------7--12-9-----------9--12-9-----------9--12-8--5-----------5--8--5-----------5--8--5--3-----------3--5-----------3--0-----------0--3--0-----------0--3-----0--------------
B|-----12----12-------------9-----9-----------9-----9-----------10----10----------10----10-------------6-----6-----------6-----6--------------4-----4--------4-----4--------1-----1-----------1-----1--------0-----------------
G|--------11-------------------8-----------------8-----------------9-----------------9--------------------7-----------------7--------------------3--------------3--------------0-----------------0-----------------0-----------
D|--------------------------------------------------------------------------------------------------------------------------------------------------------------------------------------------------------------------0--------
A|-----------------------------------------------------------------------------------------------------------------------------------------------------------------------------------------------------------------------0-----
E|--------------------------------------------------------------------------------------------------------------------------------------------------------------------------------------------------------------------------0--

Use manual mode to free up cursor. Paste any tab in acousterr tab maker and we'll play it !!!
tabs and chords, guitar tabs, music transcription, music technology, deep learning, music information retrieval, transcribe into tabs & chords, chordify, music renditions, songsterr, reverbnation, tabulature, bollywood chords, ultimate guitar, yousician, guitar lessons, acoustic guitar, electric guitar, guitar tuner, 911 tabs