Guitar Tabs for Guitar Solo Reference 1000

(/) Slide Up  (\) Slide Down  (h) Hammer On  (p) Pull Off  (b) Bend (r) Release (v) Vibrato (x) Muted

Tabs for Song : 
BPM : 175


Song lyrics here 
E|--------------14-15-15\17----15-17h15-14h15-------------------------------------------------------------
B|--17p15-------------------------------------15-17----17\22-15-17-------------------------15-------------
G|--------17----------------------------------------------------------------12----14\19-------14\18-14----
D|-----------------------------------------------------------------------------14-------------------------
A|--------------------------------------------------------------------------------------------------------
E|--------------------------------------------------------------------------------------------------------

E|-----------------------------------------------------------------------------------8--10-12-12\15-
B|--12-13-15-12-13-15-17\21--------------------------------------------------8\10\8-----------------
G|------------------------------------------------------------------7\9-----------------------------
D|-----------------------------12\14\12-11\12\11--9\11\9--7-----9-----------------------------------
A|--------------------------------------------------------------------------------------------------
E|--------------------------------------------------------------------------------------------------

E|--12-13-15-12-13-15-17-15-13-12-------------------------------------------------15-13-12----------------------------------------12-14-15-17-17-15-12-------14-------------------------------------------
B|--------------------------------15-14-12-------------------------------------------------15-14-12-------------------------12-14----------------------14-12----12-15-------------------------------------
G|-----------------------------------------14-13-12-------------------------------------------------14-13-12----------12-15-------------------------------------------14-13-12----------------------------
D|--------------------------------------------------15-14-12-------------------------------------------------15-14-12----------------------------------------------------------15-14-12-------------------
A|-----------------------------------------------------------14-13-12-------------------------------------------------------------------------------------------------------------------15-14-12----------
E|--------------------------------------------------------------------15-14-12-------------------------------------------------------------------------------------------------------------------14-13-12-

E|--------------------------------------------------------------------9--11-12-15\22\15----15-
B|--------------------------------13-10----------------------9--10-11-------------------------
G|--------------------------10-12-------12-10-------9--11-12----------------------------------
D|--------------------10-12-------------------9--12-------------------------------------------
A|-----------10-12-13-------------------------------------------------------------------------
E|--10-12-13----------------------------------------------------------------------------------

E|--15-17-14-15-14-15-14-15-14-15-14-15-14-15-14-15-14-15-14----14----------------------------------------------------------------------------------------------------------------------17-
B|-----------------------------------------------------------17----17-15-14-15-14-15-14-15-14-15-14-15-14-15-14-15-14-15----15-------------------------------------------------------15----
G|-----------------------------------------------------------------------------------------------------------------------16----17-14-15-14-15-14-15-14-15-14-15-14-15-14-15-14-15-17-------
D|-----------------------------------------------------------------------------------------------------------------------------------------------------------------------------------------
A|-----------------------------------------------------------------------------------------------------------------------------------------------------------------------------------------
E|-----------------------------------------------------------------------------------------------------------------------------------------------------------------------------------------

Song lyrics here 
E|--17-16-17-16-15-16-15-16-14-15-14-15-13-14-13-14-12-13-12-13-11-12-11-12-10-11-10-11-9--10-9--10-8--9--8--9--7--8--7--8--6--7--6--7--5--6--5--6--4--5--4--5--3--4--3--4--2--3--2--3--1--2--1--2--0--1--0--1--
B|--------------------------------------------------------------------------------------------------------------------------------------------------------------------------------------------------------------
G|--------------------------------------------------------------------------------------------------------------------------------------------------------------------------------------------------------------
D|--------------------------------------------------------------------------------------------------------------------------------------------------------------------------------------------------------------
A|--------------------------------------------------------------------------------------------------------------------------------------------------------------------------------------------------------------
E|--------------------------------------------------------------------------------------------------------------------------------------------------------------------------------------------------------------

E|--------------------------------------------------------------------------------------------------------------------------------------------------------------------------------------------------------------
B|--17-16-17-16-15-16-15-16-14-15-14-15-13-14-13-14-12-13-12-13-11-12-11-12-10-11-10-11-9--10-9--10-8--9--8--9--7--8--7--8--6--7--6--7--5--6--5--6--4--5--4--5--3--4--3--4--2--3--2--3--1--2--1--2--0--1--0--1--
G|--------------------------------------------------------------------------------------------------------------------------------------------------------------------------------------------------------------
D|--------------------------------------------------------------------------------------------------------------------------------------------------------------------------------------------------------------
A|--------------------------------------------------------------------------------------------------------------------------------------------------------------------------------------------------------------
E|--------------------------------------------------------------------------------------------------------------------------------------------------------------------------------------------------------------

E|--------------------------------------------------------------------------------------------------------------------------------------------------------------------------------------------------------------
B|--------------------------------------------------------------------------------------------------------------------------------------------------------------------------------------------------------------
G|--17-16-15-16-14-15-13-14-12-13-11-12-10-11-16-17-15-16-14-15-13-14-12-13-11-12-10-11-9--10-9--10-8--9--8--9--7--8--7--8--6--7--6--7--5--6--5--6--4--5--4--5--3--4--3--4--2--3--2--3--1--2--1--2--0--1--0--1--
D|--------------------------------------------------------------------------------------------------------------------------------------------------------------------------------------------------------------
A|--------------------------------------------------------------------------------------------------------------------------------------------------------------------------------------------------------------
E|--------------------------------------------------------------------------------------------------------------------------------------------------------------------------------------------------------------

E|-----------------------------------------------------------------------------------------------------------------------------------------------------------------
B|-----------------------------------------------------------------------------------------------------------------------------------------------------------------
G|--21-22-20-21-19-20-18-19-17-18-21-22-20-21-19-20-18-19-17-18-16-17-15-16-14-15-13-14-12-13-11-12-10-11-9--10-8--9--7--8--5--6--4--5--3--4--2--3--1--2--0--1--0--
D|-----------------------------------------------------------------------------------------------------------------------------------------------------------------
A|-----------------------------------------------------------------------------------------------------------------------------------------------------------------
E|-----------------------------------------------------------------------------------------------------------------------------------------------------------------

E|-----5-----------8--------10----------0--
B|-----5-----------8--------10----------0--
G|-----6-----------9--------11----------1--
D|-----7-----------10-------12----------2--
A|-----------------------------------------
E|-----5-----------8--------10----------0--

Use manual mode to free up cursor. Paste any tab in acousterr tab maker and we'll play it !!!
tabs and chords, guitar tabs, music transcription, music technology, deep learning, music information retrieval, transcribe into tabs & chords, chordify, music renditions, songsterr, reverbnation, tabulature, bollywood chords, ultimate guitar, yousician, guitar lessons, acoustic guitar, electric guitar, guitar tuner, 911 tabs