Guitar Tabs for Blues Runaround Scale

(/) Slide Up  (\) Slide Down  (h) Hammer On  (p) Pull Off  (b) Bend (r) Release (v) Vibrato (x) Muted

Tabs for Song : 
BPM : 225

Song lyrics here 
E|-----------------------------------------------------------------------------------------------
B|-----------------------------------------------------------------------------------------------
G|-----------------------------------------------------------------------------------------------
D|-----------------------------------------------------------------------------------------------
A|------------------------------------------------------5\7--------------------------------------
E|--0--3--5---6\7--7--6--5---3p0--------0--3--5---6\7--------------0--3--5--6--7--7--6---3p0-----

Song lyrics here 
E|-----------------------------------------------------------------------------------------
B|-----------------------------------------------------------------------------------------
G|-----------------------------------------------------------------------------------------
D|-----------------------5--7---8\9-----9--8--7--------------------------------------------
A|-----------------5--7--------------------------7--6--5-----------------------------------
E|--0--3--5---6\7-----------------------------------------7--6--5---3p0--3--5--7--5---3p0--

E|--------------------------------------------------------------------------------------------------------------
B|--------------------------------------------------------------------------------------------------------------
G|-----------------------------------7--9--7--9--7--9-----------------------------------------------------------
D|-----------------------5--7---8\9---------------------9\15-15-13----------------------------------------------
A|-----------------5--7--------------------------------------------15-14-13-------------------------------------
E|--0--3--5---6\7-----------------------------------------------------------13-12-11-9--11-12-11-9--7--5---3p0--

E|-----------------------------------------------------------------------
B|-----------------------------------------8--10-11\12-12-11-10\8--------
G|-----------------------------------7--9-----------------------------9--
D|-----------------------5--7---8\9--------------------------------------
A|-----------------5--7--------------------------------------------------
E|--0--3--5---6\7--------------------------------------------------------

E|-----------------------------------------------------10-12-12-11-10----------------------------------------------------
B|-----------------------------------------8--10-11\12----------------11-10-8--------------------------------------------
G|-----------------------------------7--9--------------------------------------9--8--7-----------------------------------
D|-----------------------5--7---8\9-----------------------------------------------------7--6--5--------------------------
A|-----------------5--7--------------------------------------------------------------------------7--6--5-----------------
E|--0--3--5---6\7-----------------------------------------------------------------------------------------7--6--5---3\0--

E|--------------------------------------------10-12-12-11-10-------------------------------------------------------------------------------3--6--6--3-----------------------------------------
B|-----------------------------------8--10-12----------------12-10-8-----------------------------------------------------------------3--6--------------6--3-----------------------------------
G|-----------------------------7--9-----------------------------------9--8--7--------------------------------------------------3--5--------------------------5--3-----------------------------
D|--------------------5--7--9--------------------------------------------------7--6--5-----------------------------------3--5--------------------------------------5--3-----------------------
A|--------------5--7--------------------------------------------------------------------7--6--5--------------------3--5--------------------------------------------------6--3-----------------
E|--0--3--5--7-----------------------------------------------------------------------------------7--6--5--3--5--3--------------------------------------------------------------6---3\0--------

Use manual mode to free up cursor. Paste any tab in acousterr tab maker and we'll play it !!!
tabs and chords, guitar tabs, music transcription, music technology, deep learning, music information retrieval, transcribe into tabs & chords, chordify, music renditions, songsterr, reverbnation, tabulature, bollywood chords, ultimate guitar, yousician, guitar lessons, acoustic guitar, electric guitar, guitar tuner, 911 tabs