Guitar Tabs for Slip Jig

(/) Slide Up  (\) Slide Down  (h) Hammer On  (p) Pull Off  (b) Bend (r) Release (v) Vibrato (x) Muted

Tabs for Song : 

Song lyrics here
E|-----------
B|-----------
G|-----------
D|--7--9--11-
A|-----------
E|-----------

E|-----------------------------------------------
B|-----------------------------------------------
G|--7--------7-----------6--7--------------------
D|--------------7-----------------9-----7--9--11-
A|-----9--9--------9--7--------9-----9-----------
E|-----------------------------------------------

E|--------------------------------------------------
B|--------------------------------------------------
G|--7--------7-----------------6--7--6--------------
D|--------------7-----------------------9--7--9--11-
A|-----9--9--------9--7--5--5-----------------------
E|--------------------------------------------------

E|-----------------------------------------------
B|-----------------------------------------------
G|--7--------7-----------6--7--------------------
D|--------------7-----------------9-----7--9--11-
A|-----9--9--------9--7--------9-----9-----------
E|-----------------------------------------------

E|-----------------------------------------------
B|-----------------------------------------------
G|--7--6-----------------------7--6--------------
D|--------7--9--7-----------7--------9--7--9--11-
A|-----------------9--7--------------------------
E|-----------------------10----------------------

E|-----------------------------------------
B|--------7-----7--------7-----7--10-10-7--
G|--7--9-----7-----7--9-----7--------------
D|-----------------------------------------
A|-----------------------------------------
E|-----------------------------------------

E|--------------------------------------------
B|--7--8--7-----------------------------------
G|-----------7--9--7-----------7--6-----------
D|--------------------9--7--9--------7--9--11-
A|--------------------------------------------
E|--------------------------------------------

E|-----------------------------------------
B|--------7-----7--------7-----7--10-10-7--
G|--7--9-----7-----7--9-----7--------------
D|-----------------------------------------
A|-----------------------------------------
E|-----------------------------------------

E|--------------------------------------------
B|--8--7--7-----------------------------------
G|-----------9--9--7--7--6-----7--6-----------
D|--------------------------9--------7--9--11-
A|--------------------------------------------
E|--------------------------------------------

E|--			
B|--
G|--
D|--
A|--
E|--

Paste any tab in acousterr's tab maker and we'll play it !!!
Now supports capo and sound effects for vibrato/pull-off/hammer/bends/mutes etc !!! Checkout help section
tabs and chords, guitar tabs, music transcription, music technology, deep learning, music information retrieval, transcribe into tabs & chords, chordify, music renditions, songsterr, reverbnation, tabulature, bollywood chords, ultimate guitar, yousician, guitar lessons, acoustic guitar, electric guitar, guitar tuner, 911 tabs