Guitar Tabs for Mabou Jig Mus305

(/) Slide Up  (\) Slide Down  (h) Hammer On  (p) Pull Off  (b) Bend (r) Release (v) Vibrato (x) Muted

Tabs for Song : 

Song lyrics here
E|--
B|--
G|--
D|--
A|--
E|--

E|--------------2--------------------3--2--------------2--3--2--3--------------------2--------------------
B|-----------------5--3--2-----------------5--3--3--5--------------5--------------------5--3--2-----------
G|-----------2--------------4--2-----------------------------------------2--------2--------------4--2-----
D|--0--4--5-----------------------------------------------------------------4--5--------------------------
A|--------------------------------------------------------------------------------------------------------
E|--------------------------------------------------------------------------------------------------------

E|--3--2-----2--------------
B|--------3-----5--2-----3--
G|--------------------2-----
D|--------------------------
A|--------------------------
E|--------------------------

E|--3--2--------------2--3--2--3--5-----3--2--------------2--3--2--3--------3--2--------------2--3--2--3--5--
B|--------5--3--3--5--------------------------5--3--3--5--------------5-----------5--3--3--5-----------------
G|-----------------------------------------------------------------------------------------------------------
D|-----------------------------------------------------------------------------------------------------------
A|-----------------------------------------------------------------------------------------------------------
E|-----------------------------------------------------------------------------------------------------------

E|-----3--2-----2-----------------
B|-----------3-----5--2-----3-----
G|-----------------------2--------
D|--------------------------------
A|--------------------------------
E|--------------------------------

E|--
B|--
G|--
D|--
A|--
E|--

Song lyrics here
E|--
B|--
G|--
D|--
A|--
E|--

Paste any tab in acousterr's tab maker and we'll play it !!!
Now supports capo and sound effects for vibrato/pull-off/hammer/bends/mutes etc !!! Checkout help section
tabs and chords, guitar tabs, music transcription, music technology, deep learning, music information retrieval, transcribe into tabs & chords, chordify, music renditions, songsterr, reverbnation, tabulature, bollywood chords, ultimate guitar, yousician, guitar lessons, acoustic guitar, electric guitar, guitar tuner, 911 tabs