Guitar Tabs for Half Time Jig

(/) Slide Up  (\) Slide Down  (h) Hammer On  (p) Pull Off  (b) Bend (r) Release (v) Vibrato (x) Muted

Tabs for Song : 

Structure:
ABAC
DEDF

Song lyrics here
E|-----------------------------------------------------A
B|-----------------------------------------------------
G|--------------------------------------------9--9-----
D|--9-----9--11-12-9-----------9-----9--11-12-------12-
A|-----12-------------12-9--12----12-------------------
E|-----------------------------------------------------

E|-----------------------------------------------------B
B|-----------------------------------------------------
G|-----------------------------------------------------
D|--9-----9--11-12-9-----------------------------------
A|-----12-------------12-9--10-12-9-----9--------9--12-
E|-----------------------------------10----12-12-------

E|-----------------------------------------------------C
B|-----------------------------------------------------
G|--------------------------------------------9--11-12-
D|--9-----9--11-12-9-----------------------------------
A|-----12-------------12-9--10-12-9-----9--------------
E|-----------------------------------10----12----------

E|--------------------------------------------------------D
B|--------------------------------------------------------
G|--11-9--------------9--11-12-11-9-----9--11-9--9--11-12-
D|--------12-11-9--------------------12-------------------
A|-----------------12-------------------------------------
E|--------------------------------------------------------

E|--------------------------------------------------E
B|--------------------------------------------------
G|--11-9-----------------------------------9--11-12-
D|--------12-11-9-----------------------------------
A|-----------------12-9--10-12-9-----9--------------
E|--------------------------------10----12----------

E|--------------------------------------------------F
B|--------------------------------------------------
G|--11-9--------------------------------------------
D|--------12-11-9-----------------------------------
A|-----------------12-9--10-12-9-----9--------9--12-
E|--------------------------------10----12-12-------

Song lyrics here
E|--
B|--
G|--
D|--
A|--
E|--

Paste any tab in acousterr's tab maker and we'll play it !!!
Now supports capo and sound effects for vibrato/pull-off/hammer/bends/mutes etc !!! Checkout help section
tabs and chords, guitar tabs, music transcription, music technology, deep learning, music information retrieval, transcribe into tabs & chords, chordify, music renditions, songsterr, reverbnation, tabulature, bollywood chords, ultimate guitar, yousician, guitar lessons, acoustic guitar, electric guitar, guitar tuner, 911 tabs