Guitar Tabs for Anugerah Aidilfitri

(/) Slide Up  (\) Slide Down  (h) Hammer On  (p) Pull Off  (b) Bend (r) Release (v) Vibrato (x) Muted

Tabs for Song : 

Song lyrics he

Song lyrics here
E|--------------------------------------------------------
B|--------5--6--5--6---------------------5p-6p-5p6--------
G|-----7--------------7--------4---4\5--------------7-----
D|--7-----------------------7-----------------------------
A|--------------------------------------------------------
E|--------------------------------------------------------

E|-----------------------------------------------------
B|--------------5---5p6--6--6--6-----8-----6---5p6--5--
G|---4\5--5--7--------------------------7--------------
D|-----------------------------------------------------
A|-----------------------------------------------------
E|-----------------------------------------------------

Paste any tab in acousterr's tab maker and we'll play it !!!
Now supports capo and sound effects for vibrato/pull-off/hammer/bends/mutes etc !!! Checkout help section
tabs and chords, guitar tabs, music transcription, music technology, deep learning, music information retrieval, transcribe into tabs & chords, chordify, music renditions, songsterr, reverbnation, tabulature, bollywood chords, ultimate guitar, yousician, guitar lessons, acoustic guitar, electric guitar, guitar tuner, 911 tabs