Guitar Tabs for F Major Chords & Arps

F Major Chords:

    F     GM    AM    bB    C     DM    EDIM  F
E|--1-----3-----5-----6-----8-----10----------1-----------
B|--1-----3-----5-----6-----8-----10----------1-----------
G|--2-----3-----5-----7-----9-----10----------2-----------
D|--3-----5-----7-----8-----10----12----14----3-----------
A|--3-----5-----7-----8-----10----12----13----3-----------
E|--------3-----5-----6-----8-----10----12----------------




F MAJOR ARPEGGIOS:

   F                                    GM
E|--------------5--8--------------------------------6--10-------
B|-----------6-----------------------------------8--------------
G|--------5-----------------------------------7-----------------
D|-----7-----------------------------------8--------------------
A|--8-----------------------------------10----------------------
E|--------------------------------------------------------------

   AM                                   bB 
E|--------------8--12-------------------------------10-13-------
B|-----------10----------------------------------11-------------
G|--------9-----------------------------------10----------------
D|-----10----------------------------------12-------------------
A|--12----------------------------------13----------------------
E|--------------------------------------------------------------


    C                                   DM
E|--------------12-15-------------------------------13-17-------
B|-----------13----------------------------------15-------------
G|--------12----------------------------------14----------------
D|-----14----------------------------------15-------------------
A|--15----------------------------------17----------------------
E|--------------------------------------------------------------



tabs and chords, guitar tabs, music transcription, music technology, deep learning, music information retrieval, transcribe into tabs & chords, chordify, music renditions, songsterr, reverbnation, tabulature, bollywood chords, ultimate guitar, yousician, guitar lessons, acoustic guitar, electric guitar, guitar tuner, 911 tabs