Guitar Tabs for A Major Chords And Arps

A MAJOR CHORDS AND ARPS:


CHORDS:

   A      BM     CSHARP M    D       E     FSHARP M    G SHARP D  A
E|--------------------------2--------0--------------------------------
B|--2-----------------------3--------0--------------------------2-----
G|--2-----4--------6--------2--------1--------------------------2-----
D|--2-----4--------6--------0--------2--------4--------6--------2-----
A|--0-----2--------4-----------------2--------4--------5--------0-----
E|-----------------------------------0--------2--------4--------------



ARPS:

    A                                   BM
E|--------------9--12-------------------------------10-14-------
B|-----------10----------------------------------12-------------
G|--------9-----------------------------------11----------------
D|-----11----------------------------------12-------------------
A|--12----------------------------------14----------------------
E|--------------------------------------------------------------

   C SHARP M                             D
E|--------------12-16-------------------------------2--5--------
B|-----------14----------------------------------3--------------
G|--------13----------------------------------2-----------------
D|-----14----------------------------------4--------------------
A|--16----------------------------------5-----------------------
E|--------------------------------------------------------------

   E                                    F SHARP M 
E|--------------4--7--------------------------------5--9--------
B|-----------5-----------------------------------7--------------
G|--------4-----------------------------------6-----------------
D|-----6-----------------------------------7--------------------
A|--7-----------------------------------9-----------------------
E|--------------------------------------------------------------

tabs and chords, guitar tabs, music transcription, music technology, deep learning, music information retrieval, transcribe into tabs & chords, chordify, music renditions, songsterr, reverbnation, tabulature, bollywood chords, ultimate guitar, yousician, guitar lessons, acoustic guitar, electric guitar, guitar tuner, 911 tabs