Guitar Tabs for G Major Chords/ Arps

G MAJOR CHORDS & ARPS:

CHORDS:

    G     AM    BM    C     D    EM    F?D    G
E|--3-----5-----7-----8-----10----0-----------3-----
B|--3-----5-----7-----8-----10----0-----------3-----
G|--4-----5-----7-----9-----11----0-----------4-----
D|--5-----7-----9-----10----12----2-----4-----5-----
A|--5-----7-----9-----10----12----2-----3-----5-----
E|--3-----5-----7-----8-----10----0-----2-----3-----



ARPS:
    G                                   AM
E|--------------7--10-------------------------------8--12----
B|-----------8-----------------------------------10----------
G|--------7-----------------------------------9--------------
D|-----9-----------------------------------10----------------
A|--10----------------------------------12-------------------
E|-----------------------------------------------------------

    BM                                  C
E|--------------10-14-------------------------------12-15----
B|-----------12----------------------------------13----------
G|--------11----------------------------------12-------------
D|-----12----------------------------------14----------------
A|--14----------------------------------15-------------------
E|-----------------------------------------------------------

   D                                    EM
E|--------------2--5--------------------------------3--7-----
B|-----------3-----------------------------------5-----------
G|--------2-----------------------------------4--------------
D|-----4-----------------------------------5-----------------
A|--5-----------------------------------7--------------------
E|-----------------------------------------------------------


tabs and chords, guitar tabs, music transcription, music technology, deep learning, music information retrieval, transcribe into tabs & chords, chordify, music renditions, songsterr, reverbnation, tabulature, bollywood chords, ultimate guitar, yousician, guitar lessons, acoustic guitar, electric guitar, guitar tuner, 911 tabs