Guitar Tabs for Sasebo - Electric Guitars

(/) Slide Up  (\) Slide Down  (h) Hammer On  (p) Pull Off  (b) Bend (r) Release (v) Vibrato (x) Muted

Tabs for Song : 
BPM : 200
CAPO 4!!

For the atmospheric parts I wanted Storm to improv some stuff, sorry I don't have more notes than that
but I trust you to play something cool and similar to the guitar part in the recording

Owen during the second verse you have free reign to give me your best twangy guitar solo. 
For both of yall this song is kind of sparse, so think of something cool and we can work out parts in practice

The main things are the two prechorus riffs and the ending tremolo picked part. Both of which I've tabbed out.
Chords can be found here as well.



Prechorus riff, Owen 
E|-----2--------------------------------------------
B|--------3--2--3--2--0-----------------------------
G|--------------------------0-----0-----0-----------
D|--0--------------------4-----4-----2--------2--0--
A|-----------------------------------------4--------
D|--------------------------------------------------

Prechorus riff, Storm
E|--------------------------------------------------
B|-----3--0-----------------------------------------
G|-----------2--4--2--0-----0-----0-----0-----------
D|--4--------------------4-----4-----2--------2--0--
A|-----------------------------------------4--------
D|--------------------------------------------------

Bombastic Ending Riff, Storm (tremolo picked with delay/distortion to help make it sound better)
E|--------------3--5--7--5--------7--5--------7--5-----------------7--5--------7--8--7--5-----7--5-----------------
B|--------3--5--------------8--5--------8--5--------8--5--8--5-----------8--5--------------8--------8--5--8--5-----
G|--5--4--------------------------------------------------------7-----------------------------------------------7--
D|-----------------------------------------------------------------------------------------------------------------
A|-----------------------------------------------------------------------------------------------------------------
D|-----------------------------------------------------------------------------------------------------------------
Bombabstic ending Owen
E|--------------10-8--7-----10-8--7-----10-8--7-----7-----8--10-8--7--8--10-12-10-8--7--10-8--7-----7--------
B|-----------------------8-----------8-----------10----10----------------------------------------10----10-8--
G|-----------------------------------------------------------------------------------------------------------
D|-----------------------------------------------------------------------------------------------------------
A|-----------------------------------------------------------------------------------------------------------
D|-----------------------------------------------------------------------------------------------------------

Verse chords (actual ones not relative to the capo)
(F#)       (Bmaj9)   (Gm7)         (C#)
I cant remember the shape of your nose
repeat
Its the small details they say always go
tabs and chords, guitar tabs, music transcription, music technology, deep learning, music information retrieval, transcribe into tabs & chords, chordify, music renditions, songsterr, reverbnation, tabulature, bollywood chords, ultimate guitar, yousician, guitar lessons, acoustic guitar, electric guitar, guitar tuner, 911 tabs