Guitar Tabs for Sasebo Acoustic

(/) Slide Up  (\) Slide Down  (h) Hammer On  (p) Pull Off  (b) Bend (r) Release (v) Vibrato (x) Muted

Tabs for Song : 
BPM : 200
Capo 4
Tuning is actually 
DADF#BE but this only let me say an F instead of F#

Verse 1
I can't remember the shape of your nose....
E|--------------------------------------------------------------------------
B|--------------------------------------------------------------------------
F|--------------------------------------------------------------3--------1--
D|--------4--------4--------4--------4--------0--------0-----2--------2-----
A|-----5--------5--------0--------0--------2--------2-----0--------0--------
D|--0--------0--------5--------5--------2--------2--------------------------

Prechorus!! 
Where you grew, where you played....
E|--------------------------------------------------------------------------x2
B|--------------------------------------------------------------------------
F|--------------------------------------------------------------------------
D|--------0--------0--------0--------0--------0--------0--------0--------0--
A|-----0--------0--------0--------0--------0--------0--------0--------0-----
D|--5--------5--------4--------4--------5--------5--------7--------2--------

Chorus, the really quiet part is just bass
aunt wendy saw a halo on your head....
E|-----------------------------------------x2
B|-----------------------------------------
F|-----------------------------------------
D|-----------------------------------------
A|-----------------------------------------
D|--0-----------5-----------2-----------7--

Verse 2 and Prechorus 2 are the same as the 1st ones. 
For acoustic theres not much more to it than these parts, sorry for the sparse tab


tabs and chords, guitar tabs, music transcription, music technology, deep learning, music information retrieval, transcribe into tabs & chords, chordify, music renditions, songsterr, reverbnation, tabulature, bollywood chords, ultimate guitar, yousician, guitar lessons, acoustic guitar, electric guitar, guitar tuner, 911 tabs