Guitar Tabs for Sanu Ek Pal Chain Na Aave Raid

sanu ek pal chain na aave
E|-----7-----7-----7--7---7h-8p7--------------------
B|--10----------------------------10-8--8-----10----
G|--------------------------------------------------
D|--------------------------------------------------
A|--------------------------------------------------
E|--------------------------------------------------


sanu ek pal chain na aave
E|-----7-----7-----7--7---7h10p7--------------------
B|--10----------------------------10-8--8-----10----
G|--------------------------------------------------
D|--------------------------------------------------
A|--------------------------------------------------
E|--------------------------------------------------


sajna tere bina
E|--------7-----------------------------------7-----------------------
B|-----10-------8-----8--8--8--------------10-------8-----8--8--8-----
G|--9-----------------------------9--9--9-----------------------------
D|--------------------------------------------------------------------
A|--------------------------------------------------------------------
E|--------------------------------------------------------------------


dil jaane kyun...
E|--------------------------------------------------
B|--------------------------------5--8--------5-----
G|-----------7-----7--7-----7-----------7-----------
D|--5--7--------------------------------------------
A|--------------------------------------------------
E|--------------------------------------------------



dil jaane kyun...
E|--------------------------------------------------------------5-----------------------
B|-----------------------8-----5--8--------5--------8--8--8-----------8-----5-----------
G|-----------7-----7--7--------------7-----------------------------------------7--------
D|--5--7-----------------------------------------------------------------------------7--
A|--------------------------------------------------------------------------------------
E|--------------------------------------------------------------------------------------


k sajna tere bina
E|-----------------7-----------------------
B|--------------10-------8-----8--8--8-----
G|-----9--9--------------------------------
D|-----------------------------------------
A|-----------------------------------------
E|-----------------------------------------

tera khayal har ghadi
E|--------------------------------------------------------------------
B|--------------------8-----------------------------------8-----------
G|-----7-----7--7-----------7-----9--------7--7--7--9-----------7--9--
D|--9-----------------------------------9-----------------------------
A|--------------------------------------------------------------------
E|--------------------------------------------------------------------


ek din jo tujhse na milu(with filler)
E|--------------------------------------------------------------------
B|-----8--8--8-----------------------------------------------------7--
G|--------------9-----7--7-----9-----7--7-----9---7h-9p7-----7--9-----
D|--------------------------------------------------------9-----------
A|--------------------------------------------------------------------
E|--------------------------------------------------------------------


pagal k jaisa me firun
E|-----------------------------------------------
B|--------8--8--------------------7--------------
G|--------------9--7-----9--------------7--7-----
D|-----------------------------------------------
A|-----------------------------------------------
E|-----------------------------------------------



tabs and chords, guitar tabs, music contests, music covers, songsterr, reverbnation, renditions, tabulature, bollywood chords, ultimate guitar, yousician, guitar lessons, torrins, fender, gibson, acoustic guitar, electric guitar, youtube covers, gootar, guitar tuner, A-Z tabs, 911 tabs