Guitar Tabs for Sanu Ik Pal Chain Na Aave

(/) Slide Up  (\) Slide Down  (h) Hammer On  (p) Pull Off  (b) Bend (r) Release (v) Vibrato (x) Muted

Tabs for Song : 
SANU IK PAL CHAIN NA AAVE
E|--5--7--7--7--7--7--5--7---5H-7P-5\3--5--
B|-----------------------------------------
G|-----------------------------------------
D|-----------------------------------------
A|-----------------------------------------
E|-----------------------------------------


SANU IK PAL CHAIN NA AAVE
E|--5--7--7--7--7--7--5--7---5H-7P-5\3--5--
B|-----------------------------------------
G|-----------------------------------------
D|-----------------------------------------
A|-----------------------------------------
E|-----------------------------------------
SAJNA TERE BINA AAAAAA....
E|--0--5--5--7---5H-7P-5\3--3--3--3---2P0--
B|-----------------------------------------
G|-----------------------------------------
D|-----------------------------------------
A|-----------------------------------------
E|-----------------------------------------
SAJNA TERE BINAAAAAA....
E|--0--0--5--5--7---5H-7P-5\3--3--3--3--
B|--------------------------------------
G|--------------------------------------
D|--------------------------------------
A|--------------------------------------
E|--------------------------------------
DIL JANE KYUN GHABRAYE.....
E|--3--5--7--10-10-10-10-12-15-10-12-12-
B|--------------------------------------
G|--------------------------------------
D|--------------------------------------
A|--------------------------------------
E|--------------------------------------
DIL JANE KYUN GHABRAYE...
E|--3--5--7--10-10-10-10-12-15-10-12-12-
B|--------------------------------------
G|--------------------------------------
D|--------------------------------------
A|--------------------------------------
E|--------------------------------------
SAJNA TER BINA...
E|--15-15-15-15-15-14-10-5--
B|--------------------------
G|--------------------------
D|--------------------------
A|--------------------------
E|--------------------------
KE SAJNA TERE BINAAAAA.....
E|--5--5--5--5--7---5H-7P-5\3--3--3--3---2P0--
B|--------------------------------------------
G|--------------------------------------------
D|--------------------------------------------
A|--------------------------------------------
E|--------------------------------------------
 
 SAJNA TERE BINAA.....
E|--0--0--5--5--7---5H-7P-5\3--3--3--3--
B|--------------------------------------
G|--------------------------------------
D|--------------------------------------
A|--------------------------------------
E|--------------------------------------

E|--
B|--
G|--
D|--
A|--
E|--

Song lyrics here
E|--
B|--
G|--
D|--
A|--
E|--

Paste any tab in acousterr's tab maker and we'll play it !!!
Now supports capo and sound effects for vibrato/pull-off/hammer/bends/mutes etc !!! Checkout help section
tabs and chords, guitar tabs, music contests, music covers, songsterr, reverbnation, renditions, tabulature, bollywood chords, ultimate guitar, yousician, guitar lessons, torrins, fender, gibson, acoustic guitar, electric guitar, youtube covers, gootar, guitar tuner, A-Z tabs, 911 tabs