Guitar Tabs for Sanam re

Tabs for Song : Sanam re 

bheege bheege sadkon pe mein
E|--------------------------------
B|--------------------------------
G|--0--3--2--3--2--0--0--0--------
D|--------------------------3-----
A|--------------------------------
E|--------------------------------

tara intezaar karu
E|--------------------------------
B|--------------------------------
G|--------0--2--0--2--0--0--0-----
D|--3--3--------------------------
A|--------------------------------
E|--------------------------------

dheere dheere dil ki zamin ko
E|--------------------------------
B|--------------------------------
G|--0--3--2--3--2--0--0--0--------
D|--------------------------3-----
A|--------------------------------
E|--------------------------------

ko tere hawale karu
E|--------------------------------
B|--------------------------------
G|--------0--2--0--2--0--0--0-----
D|--3--3--------------------------
A|--------------------------------
E|--------------------------------

khud ko mein yun kho doon
E|-----------------------------------
B|-----3--1--3--1--------------1-----
G|--0--------------3--3--2--3--------
D|-----------------------------------
A|-----------------------------------
E|-----------------------------------

ke fir na kabhi paaun
E|-----1--1-----------------------------------------
B|--1--------4--4--4--3--1--1--3--3--1--------------
G|--------------------------------------3--2--2-----
D|--------------------------------------------------
A|--------------------------------------------------
E|--------------------------------------------------

haule haule zindgi ko
E|--------------------------------
B|--------------------------------
G|--0--3--2--3--2--0--0--0--------
D|--------------------------3-----
A|--------------------------------
E|--------------------------------

ab tere hawale karun
E|--------------------------------
B|--------------------------------
G|--------0--2--0--2--0--0--0-----
D|--3--3--------------------------
A|--------------------------------
E|--------------------------------

sanam re ,sanam re

E|--------------------------------
B|--------------------------------
G|-----------0-----3--3--2--0-----
D|--3--3--3-----------------------
A|--------------------------------
E|--------------------------------

tu mera sanam hua re
E|-----------------------------------
B|-----------------------------------
G|--------0--2-----3--2--0--0--0-----
D|--3--3--------3--------------------
A|-----------------------------------
E|-----------------------------------

karam re, karaam re
E|-----------------------------------
B|-----------------1--1--------------
G|-----------0-----------2--0--------
D|--3--3--3--------------------3-----
A|-----------------------------------
E|-----------------------------------

tera mujhpe karam hua re
E|--------------------------------------------
B|-----3--3--1--1-----------1--1--------------
G|--0--------------3--3--3--------3--2--0-----
D|--------------------------------------------
A|--------------------------------------------
E|--------------------------------------------

tabs and chords, guitar tabs, music contests, music covers, songsterr, reverbnation, renditions, tabulature, bollywood chords, ultimate guitar, yousician, guitar lessons, torrins, fender, gibson, acoustic guitar, electric guitar, youtube covers, gootar, guitar tuner, A-Z tabs, 911 tabs