Guitar Tabs for Tere Liye Sanam Re Guitar Tabs

(/) Slide Up  (\) Slide Down  (h) Hammer On  (p) Pull Off  (b) Bend (r) Release (v) Vibrato (x) Muted

Tabs for Song : Tere Liye
BPM : 200

Song lyrics here 
E|-----------------------------------------------------------------------
B|-----------7-----------------------------------------------------------
G|---4\9-----------7---5/4-----------------5-----4---7\-5\4-----4--------
D|-----------------------------7-----5-----------------------------------
A|-----------------------------------------------------------------------
E|-----------------------------------------------------------------------

E|-----------------------------------------------------------------------
B|-----------7-----------------------------------------------------------
G|---4\9-----------7---5\4---------------7\5-----5-----4-----5-----------
D|-----------------------------7-----5-----------------------------------
A|-----------------------------------------------------------------------
E|-----------------------------------------------------------------------

E|-----------------------------------------------------------------------------------
B|-----------------------------------------------------------------------------------
G|--------------2--------------------2--------2--2--4---4\-2\0-----------------------
D|-----4--5--4--------------4--5--4-----------------------------------4--2--5--------
A|--5--------------------5-----------------------------------------------------------
E|-----------------------------------------------------------------------------------

E|-----------------------------------------------------
B|-----------7-----------------------------------------
G|---4\9--------7---5\4---2\0---5\4---7\5--4--4--------
D|-----------------------------------------------------
A|-----------------------------------------------------
E|-----------------------------------------------------

E|--------------------------------------------------
B|-----------7--------------------------------------
G|---4\9--------7---5\4--2--0---7\5--5--4--5--------
D|--------------------------------------------------
A|--------------------------------------------------
E|--------------------------------------------------

E|--------------------------------------------------------
B|---3\7-----8--7---5\3--------3---3\7------8/7---5/3-----
G|--------------------------------------------------------
D|--------------------------------------------------------
A|--------------------------------------------------------
E|--------------------------------------------------------

E|--------------------------------------------
B|--3--3--5---5\3--1-----1--3---3\1--0--------
G|--------------------------------------------
D|--------------------------------------------
A|--------------------------------------------
E|--------------------------------------------

E|--------------------------------------------------------------------------------------
B|--------5--4--7-----7--7--5--8-----7--5--4--7-----4--4---5\7---5\7--------7--7--5-----
G|--4--4-----------------------------------------------------------------4--------------
D|--------------------------------------------------------------------------------------
A|--------------------------------------------------------------------------------------
E|--------------------------------------------------------------------------------------

E|--------------------------------------------------------
B|--------5--5--4--7-----7--5--8-----7--5--4---7\-5\4-----
G|--4--4--------------------------------------------------
D|--------------------------------------------------------
A|--------------------------------------------------------
E|--------------------------------------------------------

E|-----------------------------------------
B|--4--4---5\7---5\7--------7--7--5--------
G|-----------------------4-----------------
D|-----------------------------------------
A|-----------------------------------------
E|-----------------------------------------


Song lyrics here 
E|--------------------------------------------------
B|--------------------------------------------------
G|-----------4-----4--7---7\5--5--4-----5-----------
D|--5--5--7--------------------------7--------------
A|--------------------------------------------------
E|--------------------------------------------------

E|-----------------------------------------------------
B|---------------------------------------------4\5-----
G|-----------------------5--5--4--------4--6-----------
D|--4--4--5--7-----7--7--------------------------------
A|-----------------------------------------------------
E|-----------------------------------------------------

E|--------------------------------------------------------
B|-----5--7--8------7\-5/10----8-----7--5--4---7\-5\4-----
G|--4-----------------------------------------------------
D|--------------------------------------------------------
A|--------------------------------------------------------
E|--------------------------------------------------------

E|--------------------------------------------------------------------------------------------------
B|--4--4---5/7---5/7-----------7--7--5---------5\-7/-5/4-----4--4---5/7---5/7-----------7--7--5-----
G|-----------------------4--------------------------------------------------------4-----------------
D|--------------------------------------------------------------------------------------------------
A|--------------------------------------------------------------------------------------------------
E|--------------------------------------------------------------------------------------------------
Jism Ka nahi tera mera rishta rooho ka ye rishta hai
E|--------------------------------------------------------------------------------------------------
B|--------------------------------------------------------5-----------------------------------------
G|--------------------------------------------------4--5--------7--5--4------4/-5/7--7--------------
D|--7--5--7--5--5-----4-----7--5--7--5--5-----5--7-----------------------7--------------------------
A|-----------------------7--------------------------------------------------------------------------
E|--------------------------------------------------------------------------------------------------
koi dekhe soorat jab meri to dikhe tera chehra hai
E|--------------------------------------------------------------------------------------------------
B|--------------------------------------------------------------------------------------------------
G|--------------------------------------------------4---5/9---7/9--7--5--4------4/-5/7---5/7--------
D|--7--5---7\5--5--4-----7--5--7--7--5--5-----5--7--------------------------7-----------------------
A|--------------------7-----------------------------------------------------------------------------
E|--------------------------------------------------------------------------------------------------

E|--------------------------------------------------------
B|--------------------------------------------------------
G|-----2---2/4--4--2---2/4--2-----------------------------
D|--5---------------------------5\4---4/7--7--7--7--------
A|--------------------------------------------------------
E|--------------------------------------------------------

E|--------------------------------------------------------------------
B|--------------------------------------------------------------------
G|-----2---2/4---4\2---2/4---2/4--4--9---9\4---4\2---2/4---2/4--------
D|--5-----------------------------------------------------------------
A|--------------------------------------------------------------------
E|--------------------------------------------------------------------

E|-----------------------------------------------------------
B|-----------------------------------------------------------
G|--4---5\4--4--------4--------------------------------------
D|--------------7--7-----7---7\5--5---7\-5\4--4--4--4--------
A|-----------------------------------------------------------
E|-----------------------------------------------------------

E|--------------------------------------------------------
B|--------------------------------------------------------
G|--------------------------------------------------------
D|--5--7---5/7--7-----5---4h-5\2--------------4---4h-5\2--
A|-----------------------------------5-----5--------------
E|--------------------------------------------------------

Use manual mode to free up cursor. Paste any tab in acousterr tab maker and we'll play it !!!
tabs and chords, guitar tabs, music transcription, music technology, deep learning, music information retrieval, transcribe into tabs & chords, chordify, music renditions, songsterr, reverbnation, tabulature, bollywood chords, ultimate guitar, yousician, guitar lessons, acoustic guitar, electric guitar, guitar tuner, 911 tabs