Guitar Tabs for Salt Lake City

(/) Slide Up  (\) Slide Down  (h) Hammer On  (p) Pull Off  (b) Bend (r) Release (v) Vibrato (x) Muted

Tabs for Song : 
BPM : 200

Intro
E|-----------------------------------------------------
B|-----------------------------------------------------
G|-----------------------------------------------------
D|-----------------------------------------4--7--------
A|--5--7-----------------------5--7--4--5--------------
E|--------5--5--5--------5--7--------------------------
Down in Utah The guys and I dig a city called Salt Lake It's got the grooviest kids That's why we never get tired of Salt Lake
E|--------------------------------------------------------------
B|--------------------------------------------------------------
G|--------------------------------------------------------------
D|--------------------------------------------------------------
A|--------5--7-----------5--7-----------------5-----------5--7--
E|--5--7-----------5--7-----------3--5---5/7--------5--7--------

And the way the kids talk so cool Is an out of sight thing And the number one radio station Makes the town really swing yeah
E|--------------------------------------------------------------------------------------------------------------------------------------------
B|--------------------------------------------------------------------------------------------------------------------------------------------
G|--------------------------------------------------------------------------------------------------------------------------------------------
D|--------------------------------------------------------------------------------------------------------------------------------------------
A|--------------------------------------------------5--5--5--5--5--5--5--5--------------------------------------------------5--5--5--5--5--5--
E|--5--5--5--5--5--5--5--5--3--3--3--3--3--3--3--3-----------------------------5--5--5--5--5--5--5--5--3--3--3--3--3--3--3--------------------
Salt Lake City we'll be coming soon
E|-----------------------------
B|-----------------------------
G|-----------------------------
D|-----------------------------
A|--5--7--------------9--7--5--
E|--------5-----7--7-----------

E|----\
B|--
G|--
D|--
A|--
E|--

Use manual mode to free up cursor. Paste any tab in acousterr tab maker and we'll play it !!!
tabs and chords, guitar tabs, music transcription, music technology, deep learning, music information retrieval, transcribe into tabs & chords, chordify, music renditions, songsterr, reverbnation, tabulature, bollywood chords, ultimate guitar, yousician, guitar lessons, acoustic guitar, electric guitar, guitar tuner, 911 tabs