Guitar Tabs for Riff City

(/) Slide Up  (\) Slide Down  (h) Hammer On  (p) Pull Off  (b) Bend (r) Release (v) Vibrato (x) Muted

Tabs for Song : 

Song lyrics here
E|--2-----------2-----------2-----------2-----------2-----------2-----------2-----------2--------
B|--------3-----------------------3-----------------------3-----------------------3--------------
G|-----2-----------2-----------2-----------2-----------2-----------2-----------2-----------2-----
D|--0--------0--------------0--------0--------------0--------0--------------0--------0-----------
A|-----------------------------------------------------------------------------------------------
E|-----------------------------------------------------------------------------------------------

E|--2-----------2-----------2-----------2-----------2-----------2-----------2-----------2--------
B|--------3-----------------------3-----------------------3-----------------------3--------------
G|-----2-----------2-----------2-----------2-----------2-----------2-----------2-----------2-----
D|--0--------0--------------0--------0--------------0--------0--------------0--------0-----------
A|-----------------------------------------------------------------------------------------------
E|-----------------------------------------------------------------------------------------------

E|--8--5-----------------------------------------------------------
B|-----------8--5--------------------------------------5-----------
G|-----------------7--5-----------------5---7b---5--7--------7--5--
D|-----------------------7--5-----5--7-----------------------------
A|-----------------------------------------------------------------
E|-----------------------------------------------------------------

E|--1--1-----------------------------------------------------------------------------
B|--0--0-----1--1--1--1--1--1--1--1--1--1--1--1--1--1--1--1--1--1--1--1--1--1--1--1--
G|--0--0-----------------------------------------2--2--2--2--2--2--2--2--2--2--2--2--
D|--0--0-----2--2--2--2--2--2--2--2--2--2--2--2--2--2--2--2--2--2--2--2--2--2--2--2--
A|--2--2-----3--3--3--3--3--3--3--3--3--3--3--3--------------------------------------
E|--3--3-----------------------------------------------------------------------------

E|--------------------------------------1--1--1--1--1--1--1--1--1--1--1--1--
B|--------------------------------------------------------------------------
G|--------------------------------------------------------------------------
D|--2--2--2--2--2--2--2--2--2--2--2--2--2--2--2--2--2--2--2--2--2--2--2--2--
A|--2--2--2--2--2--2--2--2--2--2--2--2--2--2--2--2--2--2--2--2--2--2--2--2--
E|--------------------------------------------------------------------------

E|--------------------------------------------------------------------------
B|--1--1--1--1--1--1--1--1--1--1--1--1--1--1--1--1--1--1--1--1--1--1--1--1--
G|--------------------------------------2--2--2--2--2--2--2--2--2--2--2--2--
D|--2--2--2--2--2--2--2--2--2--2--2--2--2--2--2--2--2--2--2--2--2--2--2--2--
A|--3--3--3--3--3--3--3--3--3--3--3--3--------------------------------------
E|--------------------------------------------------------------------------

E|--------------------------------------1--1--1--1--1--1--1--1--1--1--1--1--
B|--------------------------------------------------------------------------
G|--------------------------------------------------------------------------
D|--2--2--2--2--2--2--2--2--2--2--2--2--2--2--2--2--2--2--2--2--2--2--2--2--
A|--2--2--2--2--2--2--2--2--2--2--2--2--2--2--2--2--2--2--2--2--2--2--2--2--
E|--------------------------------------------------------------------------

E|--------------------------------------------------------------------------------------------
B|--------------------------------------------------------------------------------------------
G|--------------------------------------5--------------------------------------------5--7--5--
D|--7--7---5h7--7--7---5h7--7--7---5h7--------7--7---5h7--7--7---5h7--7--7---5h7--------------
A|--------------------------------------------------------------------------------------------
E|--------------------------------------------------------------------------------------------

E|--8--5--------------------------------------------------------------------------------------------
B|-----------8--5--------------------------------------5-----------------------------5--8--5--------
G|-----------------7--5-----------------5---7b---5--7--------7--5------------5h-7b------------7--5--
D|-----------------------7--5-----5--7---------------------------------5h7--------------------------
A|--------------------------------------------------------------------------------------------------
E|--------------------------------------------------------------------------------------------------








Song lyrics here:




Paste any tab in acousterr's tab maker and we'll play it !!!
Now supports capo and sound effects for vibrato/pull-off/hammer/bends/mutes etc !!! Checkout help section
tabs and chords, guitar tabs, music transcription, music technology, deep learning, music information retrieval, transcribe into tabs & chords, chordify, music renditions, songsterr, reverbnation, tabulature, bollywood chords, ultimate guitar, yousician, guitar lessons, acoustic guitar, electric guitar, guitar tuner, 911 tabs