Guitar Tabs for Swan Lake

Tabs for Song : Swan Lake


E|--0-----------------0--------0--------0--------------------------------------
B|-----------0--1--3--------1--------1-----------1--------1-----------3--1--0--
G|--------2-----------------------------------2-----2--------2-----2-----------
D|-----------------------------------------------------3-----------------------
A|-----------------------------------------------------------------------------
E|-----------------------------------------------------------------------------

E|--0-----------------0--------0--------0-----------------------------
B|-----------0--1--3--------1--------1-----------1--------1-----------
G|--------2-----------------------------------2-----2--------2-----2--
D|-----------------------------------------------------3--------------
A|--------------------------------------------------------------------
E|--------------------------------------------------------------------
tabs and chords, guitar tabs, music transcription, music technology, deep learning, music information retrieval, transcribe into tabs & chords, chordify, music renditions, songsterr, reverbnation, tabulature, bollywood chords, ultimate guitar, yousician, guitar lessons, acoustic guitar, electric guitar, guitar tuner, 911 tabs