Ukulele Tabs for Sacred Games Ukulele Theme

A|--------------------------------------
E|-----------1-----------------1--------
C|--0--2--------2-----0--2--------2-----
G|--------------------------------------


A|-----------------------------------------------------------------------------
E|-----------0--1--0-----------0--1--0-----------0--1--0-----------0--1--0-----
C|--2--0--2-----------2--0--2-----------2--0--2-----------2--0--2--------------
G|-----------------------------------------------------------------------------


A|-----------7--8--7-----------7--8--7-----------7--8--7-----------7--8--7--
E|--10-8--10----------10-8--10----------10-8--10----------10-8--10----------
C|--------------------------------------------------------------------------
G|--------------------------------------------------------------------------


A|-----------------------------------------
E|---3/5--5---------3/5--5--4---5/6--5--5--
C|-----------5--2--------------------------
G|-----------------------------------------


A|-----------------------------------------
E|---3/5--5---------3/5--5--4---5/6--5--5--
C|-----------5--2--------------------------
G|-----------------------------------------


A|-----------------------------------------
E|---3/5--5---------3/5--5--4---5/6--5--5--
C|-----------5--2--------------------------
G|-----------------------------------------
tabs and chords, guitar tabs, music transcription, music technology, deep learning, music information retrieval, transcribe into tabs & chords, chordify, music renditions, songsterr, reverbnation, tabulature, bollywood chords, ultimate guitar, yousician, guitar lessons, acoustic guitar, electric guitar, guitar tuner, 911 tabs