Ukulele Tabs for Ukulele Thing

(/) Slide Up  (\) Slide Down  (h) Hammer On  (p) Pull Off  (b) Bend (r) Release (v) Vibrato (x) Muted

Tabs for Song : 

Song lyrics here
A|--------0--3--2-----------0--3--2--3-----------------------------------------
E|-----0-----------3-----0--------------5--3--5--3-----3-----3--5--3-----3-----
C|--0-----------------0-----------------------------5-----4-----------5-----4--
G|-----------------------------------------------------------------------------

A|-----------------------8--7-----------
E|--7--8--7--5--3--7--8--------8--------
C|--------------------------------------
G|--------------------------------7--5--

Song lyrics here
A|--
E|--
C|--
G|--

Paste any tab in acousterr's tab maker and we'll play it !!!
Now supports capo and sound effects for vibrato/pull-off/hammer/bends/mutes etc !!! Checkout help section
tabs and chords, guitar tabs, music transcription, music technology, deep learning, music information retrieval, transcribe into tabs & chords, chordify, music renditions, songsterr, reverbnation, tabulature, bollywood chords, ultimate guitar, yousician, guitar lessons, acoustic guitar, electric guitar, guitar tuner, 911 tabs