Guitar Tabs for Rinser

(/) Slide Up  (\) Slide Down  (h) Hammer On  (p) Pull Off  (b) Bend (r) Release (v) Vibrato

Tabs for Song : 

Rinser Verse Riff
D|-------------------------------------------------------------------------------------------------
A|-------------------------------------------------------------------------------------------------
F|-------------------------------------------------------------------------------------------------
C|----------------------------------------------------------------------------------3--------------
G|-----8--5-----5--------------8--5-----5--------------8--5-----5----------------------------3-----
C|--0--------8-----8--5--8---0--------8-----8--5--8--0--------8-----8--5---8--0--3-----0--3-----2--



Risner Bridge
D|--------------------------------------------------------------------------------------------------
A|--------------------------------------------------------------------------------------------------
F|--------------------------------------------------------------------------------------------------
C|--------------7--7--7--7--8--8--8--8--5--5--5--5--------------7--7--7--7--8--8--8--8--10-10-10-10-
G|--5--5--5--5--------------------------------------5--5--5--5--------------------------------------
C|--------------------------------------------------------------------------------------------------

Rinser Chorus

D|--------------------------------------------------
A|--------------------------------------------------
F|--------------------------------------------------
C|--0-----------8-----------5-----------3-----------
G|--0-----------8-----------5-----------3-----------
C|--0-----------8-----------5-----------3-----2-----

Risner Middle 8 Pt I

D|-----------------------------------------
A|-----------------------------------------
F|-----------------------------------------
C|-----------------------------------------
G|-----------------------------------------
C|--0-----------5-----5--7--8-----------7--

Rinser Middle 8 PT II

D|--------------------------------------------
A|--------------------------------------------
F|--------------------------------------------
C|--------------------------------------------
G|--------------------------------------------
C|--0--10-12-0--10-12-0--10-12-12-0--10-12-12-

Rinser Outro 

D|--------------------------------------------------------------------------------------------------
A|--------------------------------------------------------------------------------------------------
F|--7--7-----7--7-----7--7-----7--7-----7--7--7-----10-10----10-10----10-10----10-10----10-10-10----
C|--------------------------------------------------------------------------------------------------
G|--5--5-----5--5-----5--5-----5--5-----5--5--5-----8--8-----8--8-----8--8-----8--8-----8--8--8-----
C|--------------------------------------------------------------------------------------------------

D|-----------------------------------------------------------------------------------------------
A|-----------------------------------------------------------------------------------------------
F|--12-12----12-12----12-12----12-12----12-12-12----10-10----10-10----9--9-----9--9-----9--9--9--
C|-----------------------------------------------------------------------------------------------
G|--10-10----10-10----10-10----10-10----10-10-10----8--8-----8--8-----7--7-----7--7-----7--7--7--
C|-----------------------------------------------------------------------------------------------

Now supports capo and sound effects for vibrato/pull-off/hammer/bends etc !!! Checkout help section
tabs and chords, guitar tabs, music transcription, music technology, deep learning, music information retrieval, transcribe into tabs & chords, chordify, music renditions, songsterr, reverbnation, tabulature, bollywood chords, ultimate guitar, yousician, guitar lessons, acoustic guitar, electric guitar, guitar tuner, 911 tabs