Guitar Tabs for Faded - Alan Walker Tabs

(/) Slide Up  (\) Slide Down  (h) Hammer On  (p) Pull Off  (b) Bend (r) Release (v) Vibrato

Guitar Tabs for Faded By Alan Walker

Intro Tune
E|--2-----2-----2-----6-----11----11----11----9-----------------------------------------------------
B|--------------------------------------------------11----11----11----11----------------------------
G|--------------------------------------------------------------------------10----10----10----10----
D|--------------------------------------------------------------------------------------------------
A|--------------------------------------------------------------------------------------------------
E|--------------------------------------------------------------------------------------------------

Repeat
E|--2-----2-----2-----6-----11----11----11----9-----------------------------------------------------
B|--------------------------------------------------11----11----11----11----------------------------
G|--------------------------------------------------------------------------10----10----10----10----
D|--------------------------------------------------------------------------------------------------
A|--------------------------------------------------------------------------------------------------
E|--------------------------------------------------------------------------------------------------


You are the shadow to my light did you feel us
E|--2--------2-----2--4--6--2--2--2--6-----
B|-----4--4-----4--------------------------
G|-----------------------------------------
D|-----------------------------------------
A|-----------------------------------------
E|-----------------------------------------

Another start you fade away
E|--2--2-----2-----2--4--4-----
B|--------4-----4--------------
G|-----------------------------
D|-----------------------------
A|-----------------------------
E|-----------------------------

Afraid our aim is out of sight wanna see us
E|--2--2-----2-----2--4--6--2--2--9--6-----
B|--------4-----4--------------------------
G|-----------------------------------------
D|-----------------------------------------
A|-----------------------------------------
E|-----------------------------------------

Where are you now 
E|--6--6--6--6-----
B|-----------------
G|-----------------
D|-----------------
A|-----------------
E|-----------------

Where are you now 
E|--6--6--6--6-----
B|-----------------
G|-----------------
D|-----------------
A|-----------------
E|-----------------

I m Faded, so lost, I m Faded
E|--6-----6-----6-----14-13-11----11----11----9-----6-----6-----9--7--6--4--1-----1-----
B|--------------------------------------------------------------------------------------
G|--------------------------------------------------------------------------------------
D|--------------------------------------------------------------------------------------
A|--------------------------------------------------------------------------------------
E|--------------------------------------------------------------------------------------
tabs and chords, guitar tabs, music contests, music covers, songsterr, reverbnation, renditions, tabulature, bollywood chords, ultimate guitar, yousician, guitar lessons, torrins, fender, gibson, acoustic guitar, electric guitar, youtube covers, gootar, guitar tuner, A-Z tabs, 911 tabs