Guitar Tabs for On My Way - Alan Walker

(/) Slide Up  (\) Slide Down  (h) Hammer On  (p) Pull Off  (b) Bend (r) Release (v) Vibrato (x) Muted

Tabs for Song : 
BPM : 110

I'm sorry but...
E|--------------------------------------------------------------------------------------------------
B|--------9-----------7-----------5-----------5--7--------9-----------7-----------5--4--------------
G|-----------------------8-----------6-----------------------------------8--------------------6-----
D|-----9-----9-----------------6-----------------------9-----9-----------------6-----------------7--
A|--7--------------9--------4--------------7--------7--------------9--------4--------------7--------
E|--------------7-----------------------5-----------------------7-----------------------5-----------

So then when I'm finished...
E|-----------------------------------------------------------------
B|-----------------------------------------------------------------
G|-----------------------------------------------------------------
D|--7-----------9--------6--------7--------------9--------6--------
A|--7-----------9--------6--------7--------------9--------6--------
E|--5-----------7--------4--------5--------------7--------4--------

So take aim and fire away...
E|--------------------------------------------------------------------------
B|--------------------------------------------------------------------------
G|--------------------------------------------------------------------------
D|--------------------------------------------------------------------------
A|--4--------------------------------------------4-----------------4--------
E|-----------4--------5--------0--------2-----------------4-----------------

E|-----------------------------------------------------------------------------------------
B|-----------------------------------------------------------------------------------------
G|-----------------------------------------------------------------------------------------
D|-----------------------------------------------------------------------------------------
A|--4-----4--4--------------------------------------------------4-----4--4-----------------
E|--------------4-----4--4--5-----5--5--0-----0--0--2-----2--2--------------4-----4--4-----

(Flute part)
E|--12----12-11-9--12-11-11-9--------9-----9-----------------------------------------------9--9-----------------------------
B|-----------------------------12-12----------12-10-12----12-10-9-----10-10-10-9-----10-9-----------------------------------
G|--------------------------------------------------------------------------------11-------------9--11----11-9--8--9--------
D|--------------------------------------------------------------------------------------------------------------------11-11-
A|--------------------------------------------------------------------------------------------------------------------------
E|--------------------------------------------------------------------------------------------------------------------------

All of these parts are then just repeated for the rest of the song.
tabs and chords, guitar tabs, music transcription, music technology, deep learning, music information retrieval, transcribe into tabs & chords, chordify, music renditions, songsterr, reverbnation, tabulature, bollywood chords, ultimate guitar, yousician, guitar lessons, acoustic guitar, electric guitar, guitar tuner, 911 tabs