Guitar Tabs for Renai Circulation

(/) Slide Up  (\) Slide Down  (h) Hammer On  (p) Pull Off  (b) Bend (r) Release (v) Vibrato (x) Muted

Tabs for Song : 
BPM : 200

Song lyrics here 
E|--
B|--
G|--
D|--
A|--
E|--

Song lyrics here 
E|--
B|--
G|--
D|--
A|--
E|--

Use manual mode to free up cursor. Paste any tab in acousterr tab maker and we'll play it !!!
E|--------------------------------------------------------------------------------2--------------
B|-----3-----0-----0--0-----------3-----3-----3--------0-----0--0-----------3--------------3-----
G|--------2-----------0-----2--------------------2--------------------2-----------------------2--
D|--------------------------------------------------------------4--------------------------------
A|--------------------------------------------------------------------------2--------------------
E|-----------3--------------------3--------------------2-----------------------------------------


E|--------------------------------------0--------------------------2--------------------------0-----2--------------------
B|--0-----0--0-----------3-----3--3-----------3-----3--3-----0-----------------3-----3--3-----------------3--3--------0--
G|-----------0-----2--------------2--------------------------------------------------------------------------------2-----
D|--------------------------------------------0--------4--------------------------------0--------------------2-----------
A|-----------------------0-----------------------------------------2--------------------------------0--------------------
E|--0--------------------------------------------------------------------------3-----------------------------------------


E|-----------------0-----2--------------------------------------------------------------------3--2--------------0-----2--------------
B|--3-----3--3-----------0-----3--------0-----3-----0--3--3-----0-----3-----0--3--3-----3--------------3--------------0--------0-----
G|-----------2--------------------------------------------------------------------------------------------2-----------------2--------
D|--0-----------------------------4-----------------------0-----------------------2-----------0--------------------------------------
A|--------------------------------------------------------------------0--------------------------------------------------------------
E|--------------------------------------------3--------------------------------------------------------------------------------------


E|-----------------0-----2--------------------------------------0-----2-----------------------------------------------------------------
B|--3-----3--3-----------------3--3--------0-----3-----3--------------0-----3--3-----0-----3-----0--3--3-----0-----3-----0--3--3-----3--
G|--------------------------------------2-----------------2-----------------------------------------------------------------------------
D|-----------0--------------------2--------------------------------------------4-----------------------0-----------------------2--------
A|-----------------------0-----------------------0-----------------------------------------------------------------0--------------------
E|--3--------------------------------------------------------------------------------------3--------------------------------------------


E|--3--2--------------0-----------------2-----3-----2-----3-----5-----2-----3-----2-----3-----5-----5-----3-----2-----3--
B|-----------3--3-----------3-----------------------3-----------2--------------------------------------------------------
G|--------------2-----------------------0-----------------------------------------------------6-----4--------------------
D|--0-----------------------0-----------------------------------------------------4--------------------------------------
A|-----------------------------------------------------------------------------------------------------------------------
E|-----------------------------------------------------------------------------------------------------------------------


E|--2--------------------2--------------0-----------------------------2-----------2-----3-----2-----3-----5-----2-----3--
B|--------3--3-----0-----------3--3-----------3-----3-----3-----0-----------------------------3-----------2--------------
G|-----------0-----------2--------------------------------2-----------------------0--------------------------------------
D|--2-----------------------------------------0-----------------------4--------------------------------------------------
A|--------------------------------0--------------------------------------------------------------------------------------
E|-----------------------------------------------------------------------------------------------------------------------


E|--2-----3-----5-----5-----3-----2-----3-----2--------------------2--------------0-----------------------2-----------
B|--------------------------------------------------3--3-----0-----------3--3-----------3-----3-----3-----------3-----
G|--------------6-----4--------------------------------0-----------2--------------------------------2-----------------
D|--4-----------------------------------------2-----------------------------------------0-----------------------0-----
A|--------------------------------------------------------------------------0-----------------------------------------
E|--------------------------------------------------------------------------------------------------------------------


E|--5-----2-----0-----2-----0-----------0-----2-----------2-----2-----7-----2-----0-----------------------0-----2-----0-----0--------
B|--------------------------------3-----------------0-----------------------------------3-----3-----3--------------------------------
G|--------2-----0-----------------------------------------------------------------0-----------------------------------------2--------
D|--0-----------------------------------4-----------------4-----------------0-----------------------------------2--------------------
A|--------------------------2-----------------------------------------------------------------------0--------------------------------
E|--------------------------------------------------------------------3--------------------------------------------------------------


E|--5-----2-----0-----2-----0-----------0-----2-----------2-----2-----7-----2-----0-----2-----------------------------------------
B|--------------------------------3-----------------0-----------------------------------------3--------------3--------------3-----
G|--------2-----0-----------------------------------------------------------0-----------2--------------------------------------2--
D|--0-----------------------------------4-----------------4-----------------------0-----------0--------------0--------------------
A|--------------------------2-----------------------------------------------------------------------0-----------------------------
E|--------------------------------------------------------------------3--------------------------------------------3--------------


E|-----------------------------------------------------------------------2--------------------------------------------------0--
B|--0-----0--0-----------3-----3-----3--------0-----0--0-----------3-----------3--------0-----0--0-----------3-----3--3--------
G|-----------0-----2--------------------2--------------------2--------------------2--------------0-----2--------------2--------
D|-----------------------------------------------------4-----------------------------------------------------------------------
A|-----------------------------------------------------------------2-----------------------------------------0-----------------
E|--3--------------------3--------------------2-----------------------------------------0--------------------------------------


E|-----------------------2-----------------------------------------------------------------------------2-----------
B|--3-----3--3-----0-----------3--------0-----0--0-----------3-----3-----3--------0-----0--0-----------------3-----
G|--------------------------------2--------------0-----2--------------------2--------------------2--------------2--
D|--0--------4-----------------------------------------------------------------------------4-----------------------
A|-----------------------2-----------------------------------0-----------------------------------------2-----------
E|--------------------------------------3-----------------------------------------2--------------------------------


E|--------------------------------------0-----------------------2--------
B|--0-----0--0-----------3-----3--3-----------3-----3-----3-----------3--
G|-----------0-----2--------------2-----------------------2--------------
D|--------------------------------------------0-----------------------0--
A|-----------------------0-----------------------------------------------
E|--0--------------------------------------------------------------------
tabs and chords, guitar tabs, music transcription, music technology, deep learning, music information retrieval, transcribe into tabs & chords, chordify, music renditions, songsterr, reverbnation, tabulature, bollywood chords, ultimate guitar, yousician, guitar lessons, acoustic guitar, electric guitar, guitar tuner, 911 tabs