Guitar Tabs for Reina Circulation

(/) Slide Up  (\) Slide Down  (h) Hammer On  (p) Pull Off  (b) Bend (r) Release (v) Vibrato (x) Muted

Tabs for Song : 
BPM : 200

Song lyrics here 
E|--0--------------0--0--
B|-----0--2--2--0--------
G|-----------------------
D|-----------------------
A|-----------------------
E|-----------------------

E|--0--------------0--4--
B|-----0--2--2--0--------
G|-----------------------
D|-----------------------
A|-----------------------
E|-----------------------

E|--0-----------------0--0--0--
B|-----0--2--2--2--0-----------
G|-----------------------------
D|-----------------------------
A|-----------------------------
E|-----------------------------

E|--2--0--0--0-----4--
B|--------------2-----
G|--------------------
D|--------------------
A|--------------------
E|--------------------

E|--0--0--0--2--4--0--
B|--------------------
G|--------------------
D|--------------------
A|--------------------
E|--------------------

E|--------0--0--0--2--4--0--
B|--0--2--------------------
G|--------------------------
D|--------------------------
A|--------------------------
E|--------------------------

E|-----0-----0-----0-----0--
B|--2-----2-----2-----2-----
G|--------------------------
D|--------------------------
A|--------------------------
E|--------------------------

E|--0--5--4--0-----4--
B|--------------2-----
G|--------------------
D|--------------------
A|--------------------
E|--------------------

E|--0--0--0--2--4--0--
B|--------------------
G|--------------------
D|--------------------
A|--------------------
E|--------------------

E|--------0--0--0--2--4--0--
B|--0--2--------------------
G|--------------------------
D|--------------------------
A|--------------------------
E|--------------------------

E|-----0-----0-----0-----0--
B|--2-----2-----2-----2-----
G|--------------------------
D|--------------------------
A|--------------------------
E|--------------------------

E|--0--5--4--0--2--0--
B|--------------------
G|--------------------
D|--------------------
A|--------------------
E|--------------------

E|-----------1--2--
B|-----------------
G|-----------------
D|-----------------
A|-----------------
E|-----------------

E|-----------3--4--
B|-----------------
G|-----------------
D|-----------------
A|-----------------
E|-----------------

E|-----------1--2--
B|-----------------
G|-----------------
D|-----------------
A|-----------------
E|-----------------

E|-----------4--0--
B|-----------------
G|-----------------
D|-----------------
A|-----------------
E|-----------------

E|-----------1--2--
B|-----------------
G|-----------------
D|-----------------
A|-----------------
E|-----------------

E|-----------3--4--
B|-----------------
G|-----------------
D|-----------------
A|-----------------
E|-----------------

E|-----------1--2--
B|-----------------
G|-----------------
D|-----------------
A|-----------------
E|-----------------

E|-----------4--0--
B|-----------------
G|-----------------
D|-----------------
A|-----------------
E|-----------------

E|--4--5--4--5--7-----4--
B|-----------------------
G|-----------------------
D|-----------------------
A|-----------------------
E|-----------------------

E|--5--4--5--7-----7--5--4--
B|--------------------------
G|--------------------------
D|--------------------------
A|--------------------------
E|--------------------------

E|--5--4--0--0--0-----4--0--0--0--
B|-----------------2--------------
G|--------------------------------
D|--------------------------------
A|--------------------------------
E|--------------------------------

E|-----0--0--0-----4--
B|--2-----------2-----
G|--------------------
D|--------------------
A|--------------------
E|--------------------

E|--4--5--4--5--7-----4--
B|-----------------------
G|-----------------------
D|-----------------------
A|-----------------------
E|-----------------------

E|--5--4--5--7-----7--5--4--
B|--------------------------
G|--------------------------
D|--------------------------
A|--------------------------
E|--------------------------

E|--5--4--0--0--0-----4--0--0--0--
B|-----------------2--------------
G|--------------------------------
D|--------------------------------
A|--------------------------------
E|--------------------------------

E|--2--0--0--0--0--4--0--
B|-----------------------
G|-----------------------
D|-----------------------
A|-----------------------
E|-----------------------

E|--7--4--2--4--
B|--------------
G|--------------
D|--------------
A|--------------
E|--------------

E|--4--2--0--2--4--
B|-----------------
G|-----------------
D|-----------------
A|-----------------
E|-----------------

E|--4--9--4--2--0--
B|-----------------
G|-----------------
D|-----------------
A|-----------------
E|-----------------

E|--0--0--2--4--2-----
B|--------------------
G|--------------------
D|--------------------
A|--------------------
E|--------------------

E|--7--4--2--4--
B|--------------
G|--------------
D|--------------
A|--------------
E|--------------

E|--4--2--0--2--4--
B|-----------------
G|-----------------
D|-----------------
A|-----------------
E|-----------------

E|--4--9--4--2--4--
B|-----------------
G|-----------------
D|-----------------
A|-----------------
E|-----------------

E|--0--
B|-----
G|-----
D|-----
A|-----
E|-----

E|--0--------------0--0--
B|-----0--2--2--0--------
G|-----------------------
D|-----------------------
A|-----------------------
E|-----------------------

E|--0--------------0--4--
B|-----0--1--1--0--------
G|-----------------------
D|-----------------------
A|-----------------------
E|-----------------------

E|--0-----------------0--0--0--
B|-----0--2--2--2--0-----------
G|-----------------------------
D|-----------------------------
A|-----------------------------
E|-----------------------------

E|--2--0--0--0-----4--
B|--------------2-----
G|--------------------
D|--------------------
A|--------------------
E|--------------------

E|--0--------------0--0--
B|-----0--2--2--0--------
G|-----------------------
D|-----------------------
A|-----------------------
E|-----------------------

E|--0--------------4--0--
B|-----0--2--2--0--------
G|-----------------------
D|-----------------------
A|-----------------------
E|-----------------------

E|--0-----------------0--0--0--
B|-----0--2--2--2--0-----------
G|-----------------------------
D|-----------------------------
A|-----------------------------
E|-----------------------------

E|--2--0--0--0--4--0--
B|--------------------
G|--------------------
D|--------------------
A|--------------------
E|--------------------

Song lyrics here 
E|--
B|--
G|--
D|--
A|--
E|--

Use manual mode to free up cursor. Paste any tab in acousterr tab maker and we'll play it !!!
tabs and chords, guitar tabs, music transcription, music technology, deep learning, music information retrieval, transcribe into tabs & chords, chordify, music renditions, songsterr, reverbnation, tabulature, bollywood chords, ultimate guitar, yousician, guitar lessons, acoustic guitar, electric guitar, guitar tuner, 911 tabs