Guitar Tabs for Remember Me

(/) Slide Up  (\) Slide Down  (h) Hammer On  (p) Pull Off  (b) Bend (r) Release (v) Vibrato (x) Muted

Tabs for Song : 
BPM : 160

Song lyrics here
E|-----------0--0-----------------------------------
B|-----------------------1--------------------------
G|--------------------------0-----0--0--------0-----
D|-----------------------------2--2--2-----2-----2--
A|--------------------------3-----------3-----------
E|--------------------------------------------------

E|--------------------0--0-----------------------0--1--
B|--------1--3--3-----------1--------------------------
G|-----1--------1--------------0-----0--0--------------
D|--3--------------3--------------2--2--2-----2--------
A|-----------------------------3-----------3-----------
E|--1-----------1--------------------------------------

E|--1--0--0--------------------5--5--3--3--0--0-----
B|--3--------3--3--------------------------------1--
G|--2-----2-----1-----1-----5-----5--4--4--2--2-----
D|-----------------0-----0--5-----------------------
A|--2-----------------------0-----------------------
E|--------------0-----------------------------------

Song lyrics here
E|-----1--1--0--0--------------3--3--1--1--0--0-----
B|-----------------------------------------------1--
G|--3-----3-----3-----3-----2-----2-----2-----2-----
D|-----------------2--------3-----------3-----------
A|--------------3--------0--------------------------
E|--3-----------------------1-----------1-----------

E|--0--------------------0-----------------------------
B|--------3--1--3-----1-----1--------------------------
G|--1-----------0--------------0-----0--0--------0-----
D|-----3-----------0--------------2--2--2-----2-----2--
A|--1--------------------------3-----------3-----------
E|--------------3--------------------------------------

E|--------------------0--0--1--0--------------------0--1--
B|--------1--3--3--------------------------0--0-----------
G|-----1--------1-----------------------0--0--0-----------
D|--3--------------3-----------------2-----------2--------
A|--------------------------------3-----------------------
E|--1-----------1-----------------------------------------

E|--1--0--0--1--3--------------8--8--7--7--5--5-----
B|--------------------------------------8--------8--
G|--3-----3-----3-----3-----5-----5-----5-----5-----
D|-----------------2-----0--------------------------
A|--------------3-----------8-----------8-----------
E|--3-----------------------------------------------

E|--------------------------------------1--1--4--4--8--
B|--8--5--5-----------------------1--1-----1-----------
G|--5---------8\7--5-----5--------1--------1-----------
D|--5--------------5--5--5--------3--------3-----------
A|--7-----7--------------------------------------------
E|-----------------5-----4-----1-----------------------

E|--10-------------8--8--8--8-----------------------
B|-----------------------------------------8--------
G|--10----10-------------------------9--------9-----
D|--9--9--------------------------10-------------10-
A|--10-------10----------------10-------------------
E|--------------------------8-----------8-----------

E|--------------------------------------------0-----
B|-----------3-----1--1--1--1--------------1--------
G|--------1--------0--------------0-----0-----------
D|-----3-----------3-----------3-----2-----------0--
A|--------------------------3-----------------------
E|--1-----------1-----------------------------------

E|--------0--------------------------------------0--
B|--1-----------3-----------------1--3--3-----3-----
G|--2-----------1--------------0--------0-----0-----
D|-----3--------3--------------2-----------2--------
A|--------------------------3-----------3-----------
E|--1-----------1-----------------------------------

E|--0--------------------0--0--------------------0--
B|--1--------1--3-----3-----1--------1--1--3--3-----
G|--2-----2-----1-----1-----0-----0-----0-----0-----
D|-----3-----------3-----------2--------------2-----
A|--------------------------3-----------3-----------
E|--1-----------1-----------------------------------

E|--0--------------0--0-----------------------------
B|--3-----------3--------1--------------------------
G|--2-----2-----1-----------0-----0--0--------0-----
D|-----3-----3--3--------------2--2--2-----2-----2--
A|--------------------------3-----------3-----------
E|--1-----------1-----------------------------------

E|--------------------0--0-----------------------0--1--
B|--------1--3--3-----------1--------------------------
G|-----1--------1--------------0-----0--0--------------
D|--3--------------3--------------2--2--2-----2--------
A|-----------------------------3-----------3-----------
E|--1-----------1--------------------------------------

E|--1--0--0--------------------5--5--3--3--0--0-----
B|--3--------3--3--------------------------------1--
G|--2-----2-----1-----1-----5-----5--4--4--2--2-----
D|-----------------0-----0--5-----------------------
A|--2-----------------------------------------------
E|--------------0-----------0-----------------------

E|--3--1--1--0--0---------------3/3--1--1--0--0-----
B|--------------------1---------5/5--3--3--1--1--1--
G|--3-----3-----3-----3--3--2-----------------------
D|--------------2--0--3--2--3-----------------------
A|--------------3-----------------------------------
E|--3-----------------3--2--1-----------------------

E|--0--------------------0-----------------------------
B|--------3--1--3-----1-----1--------------------------
G|--1-----------0--------------0-----0--0--------0-----
D|-----3-----------0--------------2--2--2-----2-----2--
A|-----------------------------3-----------3-----------
E|--1-----------3--------------------------------------

E|--------------------0--0--1--0-----------------0--0--1--
B|--------1--3--3--------------------------0--0-----------
G|-----1--------1-----------------------0--0--0-----0-----
D|--3--------------3-----------------2--------------------
A|--------------------------------3-----------------------
E|--1-----------1-----------------------------------------

E|--1--0--0--1--3---------------6/8--8--7--7--5--5--3--
B|------------------------------8/10-10-8--8--6--6--5--
G|--3-----3-----3-----3-----5--------------------------
D|-----------------2-----0-----------------------------
A|--------------3-----------8--------------------------
E|--3--------------------------------------------------

E|--3--0---1\0--------------------------1--1--4--4--8--
B|--5-----------3--1--------------1--1-----1-----------
G|--------------4--2-----5--------1--------1-----------
D|--------------------0-----------3--------3-----3-----
A|-----------------0-----------------------------------
E|--0--------4-----------4-----1-----------------------

E|--10----------------------8-----8-----8-----------8--
B|--------------------------10----------9-----------8--
G|--10----10----------------10----------10----------9--
D|--9--9--------------------------------------------10-
A|--10----------------------10----------10----------10-
E|--------------------------------------------------8--

Paste any tab in acousterr's tab maker and we'll play it !!!
Now supports capo and sound effects for vibrato/pull-off/hammer/bends/mutes etc !!! Checkout help section
tabs and chords, guitar tabs, music transcription, music technology, deep learning, music information retrieval, transcribe into tabs & chords, chordify, music renditions, songsterr, reverbnation, tabulature, bollywood chords, ultimate guitar, yousician, guitar lessons, acoustic guitar, electric guitar, guitar tuner, 911 tabs