Ukulele Tabs for Remember Me

(/) Slide Up  (\) Slide Down  (h) Hammer On  (p) Pull Off  (b) Bend (r) Release (v) Vibrato (x) Muted

Tabs for Song : 

Song lyrics here
A|-----5--7--3--------------------------3--3-----5--7--7--5--
E|-----------------3--------3--0--1-----------5--4-----------
C|-----------------0--------------0--------------5-----------
G|-----------------0-----------------------------------------

A|--------------7--------8--7--7-----5-----2------3/---12-12-10-10-7--7-----
E|--3--------------------6--------5--4------------0/------0-----0-----0--5--
C|--0--------------------5-----------4------------0/------0-----0-----0-----
G|--0--------------------------------4------------2/------------------------

Song lyrics here
A|--10-8--8--7--7--------------10-10-8--8--7--7--------7--------------5--
E|--6-----------6-----5-----5--------------------8-----8--10-10----8--7--
C|--------------0-----------5--------------------------------------------
G|--------------0--------------------------------------------------------

A|-----3--7-----3-----------------------3--3--5--5--7--7--8--
E|---------------------3/3-----0-----1-----------4-----------
C|---------------------0/------------0-----------5-----------
G|---------------------0/------------------------------------

A|--7-----------7--7--8-----8--7--7--8--10-------------15-15-14-12-12-10-
E|--3--------------3--------6-----------6-----------8--13-13-13-13-13-12-
C|--0--------------0--------7-----------0--------------------------------
G|--0--------------0--------------------0--------------------------------

A|--10-7--7-----------------------------11-11-15----17----15-15-15-15----15-
E|--7-----7--10-8-----------8--8--11-11-------------------------------------
C|--7-----8-----9-----------------------------------------------------------
G|--------------------------------------------------------------------------

Paste any tab in acousterr's tab maker and we'll play it !!!
Now supports capo and sound effects for vibrato/pull-off/hammer/bends/mutes etc !!! Checkout help section
tabs and chords, guitar tabs, music transcription, music technology, deep learning, music information retrieval, transcribe into tabs & chords, chordify, music renditions, songsterr, reverbnation, tabulature, bollywood chords, ultimate guitar, yousician, guitar lessons, acoustic guitar, electric guitar, guitar tuner, 911 tabs