Guitar Tabs for Remember Me

(/) Slide Up  (\) Slide Down  (h) Hammer On  (p) Pull Off  (b) Bend (r) Release (v) Vibrato (x) Muted

Tabs for Song : 
BPM : 120

Song lyrics here
E|-----0-----------------------------------------0--0-------------------0-1--0--0----------	
B|--3--------1-----------------------1--1--3--3--------3---------------------------3--3----
G|--------------0-----------0-----------------------------0--------------------------------
D|-----------------------------3--3--------------------------------------------------------
A|-----------------------------------------------------------------------------------------
E|---------------------------------------------------------------------------------------
--------------------------------------------------

Song lyrics here
E|--------5--5--3--3--0--0-----3--1--1--0--0--------------3--3--1--1--0--0-----0--------------
B|--1--1--------------------1-----------------------------------------------1-----3--3--1--3--
G|--------------------------------------------------0--2--------------------------------------
D|--------------------------------------------------------------------------------------------
A|--------------------------------------------------------------------------------------------
E|--------------------------------------------------------------------------------------------


E|----------0--------------------------------------------0--0--1--0---------0--0--1--1--0--0--1--3-----
B|-------3--------1--------------------------1--1--3--3------------------------------------------------
G|-------------------0--------------0------------------------------------------------------------------
D|-------------------------------------3--3------------------------------------------------------------
A|-----------------------------------------------------------------------------------------------------
E|-----------------------------------------------------------------------------------------------------


E|----------8--8--7--7--5--5--3--3--0--0--------------------------4--4--8--8-10-10------
B|----1--1--------------------------------3--1--------1--1--4--4------------------------
G|--------------------------------------------------------------------------------------
D|--------------------------------------------------------------------------------------
A|--------------------------------------------------------------------------------------
E|--------------------------------------------------------------------------------------

E|-----------------
B|-----3--1--0--1--
G|-----------------
D|-----------------
A|-----------------
E|-----------------

Paste any tab in acousterr's tab maker and we'll play it !!!
Now supports capo and sound effects for vibrato/pull-off/hammer/bends/mutes etc !!! Checkout help section
tabs and chords, guitar tabs, music transcription, music technology, deep learning, music information retrieval, transcribe into tabs & chords, chordify, music renditions, songsterr, reverbnation, tabulature, bollywood chords, ultimate guitar, yousician, guitar lessons, acoustic guitar, electric guitar, guitar tuner, 911 tabs