Guitar Tabs for Holy Spirit (key G)

(/) Slide Up  (\) Slide Down  (h) Hammer On  (p) Pull Off  (b) Bend (r) Release (v) Vibrato (x) Muted

Tabs for Song : Holy Spirit

Verse 1:
E|--------8--
B|--8-----8--
G|--7-----5--
D|--5--------
A|-----------
E|-----------

Chorus 1:
E|-----8--5--
B|--8--8--5--
G|--7--5--2--
D|--5--------
A|-----------
E|-----------

Introlude:
E|-----8--7--7--7--------7--8--7-----
B|-----------------------------------
G|--7--------------7--7-----------9--5
D|-----------------------------------
A|-----------------------------------
E|-----------------------------------

Chorus:

E|-----3-----3--8--7--------------------
B|-----3--3-----------------1--3--1-----
G|-----4--------------9--0-----------
D|-----5--------------------------------
A|-----5--------------------------------
E|-----3--------------------------------

Bridge:

E|-8-----8-----7-----7-----5-----5-----7-----7---------
B|----8-----8-----8-----8-----5-----5-----8-----8------
G|-----------------------------------------------------
D|-----------------------------------------------------
A|-----------------------------------------------------
E|-----------------------------------------------------




Paste any tab in acousterr's tab maker and we'll play it !!!
Now supports capo and sound effects for vibrato/pull-off/hammer/bends/mutes etc !!! Checkout help section
tabs and chords, guitar tabs, music transcription, music technology, deep learning, music information retrieval, transcribe into tabs & chords, chordify, music renditions, songsterr, reverbnation, tabulature, bollywood chords, ultimate guitar, yousician, guitar lessons, acoustic guitar, electric guitar, guitar tuner, 911 tabs