Bass Tabs for Radiohead - Creep

Creep - Radiohead  

All Song
G|-------------------------------------------------------------------------------------------------
D|-------------------------------------------------------------------------------------------------
A|-------------------------------------------2-----2--2-----2--------2--2-----3--------3--3-----3--
E|--3-----3--3--3-----3--3-----3--3--3----3-----2--------2--------2--------2--------3--------3-----

G|--------------------------------
D|--------------------------------
A|-----3--3-----3--------3--3-----
E|--3--------3--------3--------3--

Ending
G|-----------------
D|-----------------
A|--3--5--6--------
E|-----------1--3--

All Song Variations
G|--------------------------------------------------------------------------------------------------
D|--------------------------------------------------------------------------------------------------
A|--------------------------------------------2-----2--2--2-----2-----2--2--2-----2--3-----3--3--3--
E|--3-----3--3--3-----3--3-----3--3--3-----3-----------------2--------------------------------------

G|-----------------------------------------
D|-----------------------------------------
A|-----3-----3--3--3--2--3-----3--3--3--2--
E|--3--------------------------------------

Ending Variations
G|-----------------/-----------------/
D|--------1--------/-----------------/
A|--3--5-----------/---3/5--6--8-----/
E|-----------1--3--/--------------3--/

Weird Voice Part
G|-----------------------------------------------------------------------------------------------
D|-----------------------------------------------------------------------------------------------
A|-----------------5-----------------------2-----2--2-----2--------------------3-----3--3-----3--
E|--3-----3--3--3-----3-----3--3--5--3--2-----2--------2-----3--3---3h5--3--2-----3--------3-----

G|--------------------------------------------------------------------------------------------
D|--------------------------------------------------3--5-----5--5-----5-----5--5---5h7--5-----
A|--3--3---3h5--3--2--3-----3--3--3--3--5--5--6--6--------5--------------------------------2--
E|-----------------------3-----------------------------------------3--------------------------

G|-----------------------------------------------------------------
D|-----------------------------------------------------------------
A|-----2--2-----2-----2-----2--5--3-----3--3-----3-----3--3--5--~~3
E|--2--------2-----2-----2-----------3--------3-----3--------------

Outro
G|-----------------------------------------------------------------------------------
D|--------------------------------------------------------------------5--7------7/9--
A|-----------------2-----2--2-----2--3-----3--3-----3--3-----------------------------
E|--3-----3--3-----------------------------------------------------------------------

tabs and chords, guitar tabs, music transcription, music technology, deep learning, music information retrieval, transcribe into tabs & chords, chordify, music renditions, songsterr, reverbnation, tabulature, bollywood chords, ultimate guitar, yousician, guitar lessons, acoustic guitar, electric guitar, guitar tuner, 911 tabs