Creep (radiohead) - Pierce - Guitar Tabs

Zaid
    
                                                                                                                                                                                                                                                                                                                                                                                                                                                                                                                                                                                                                                                                                                                                                                                                                                                                                                                                                                                                                                                                                                                                                                                              
E|--------x--x----------------|---x--x--------x--x-------------|
B|--------x--x----------------|---x--x--------x--x-------------|
G|--------x--x----------------|---x--x--------x--x--0--0-------|
D|--------x--x----------------|---x--x--------x--x--0--0-------|
A|--------x--x----------------|---x--x--------x--x-------------|
E|--------x--x----------------|---x--x--------x--x-------------|

    
    G                                                                                                                                                                                                                                                                                                                                                                                                                                                                                                                                                                                             G                                                                                                                                                                                                                                                                                                                                                                                                                                                                                                                                                                                             
E|--3-------------------------|-----------------------|
B|--3-----------------------3-|-----------------------|
G|--4------------------4p5----|-----------------------|
D|--5-----5--------5----------|---5-------------------|
A|--5-----------5-------------|---------5-------------|
E|--3-------------------------|---------------3-------|

    
    B                                                                                                                                                                                                                                                                                                                                                                                                                                                                                                                                                                                             B                                                                                                                                                                                                                                                                                                                                                                                                                                                                                                                                                                                             
E|--7----------------------------|-----------------------|
B|--7----------------------------|-----------------------|
G|--8--8------9p8---------8p9--8-|-----------------------|
D|--9-----9-----------9----------|---9-------------------|
A|--9----------------------------|---------9-------------|
E|--7----------------------------|---------------7-------|

    
                                                                                                                                                                                                                                                                                                                                                                                                                                                                                                                                                                                                                                                                                                                                                                                                                                                                                                                                                                                                                                                                                                                                                                                              
E|-------------------------------------------------------------------------------------------------|-----------------------------------------------------------------------------------------------|
B|-------------------------------------------------------------------------------------------------|-----------------------------------------------------------------------------------------------|
G|--5--5--5--5--5--5--5--5--5--5--5--5--5--5--5--5--5--5--5--5--5--5--5--5--5--5--5--5--5--5--5--5-|7--7--7--7--7--7--7--7--7--7--7--7--7--7--7--7--7--7--7--7--7--7--7--7--7--7--7--7--7--7--7--7-|
D|--x--x--x--x--x--x--x--x--x--x--x--x--x--x--x--x--x--x--x--x--x--x--x--x--x--x--x--x--x--x--x--x-|x--x--x--x--x--x--x--x--x--x--x--x--x--x--x--x--x--x--x--x--x--x--x--x--x--x--x--x--x--x--x--x-|
A|--3--3--3--3--3--3--3--3--3--3--3--3--3--3--3--3--3--3--3--3--3--3--3--3--3--3--3--3--3--3--3--3-|5--5--5--5--5--5--5--5--5--5--5--5--5--5--5--5--5--5--5--5--5--5--5--5--5--5--5--5--5--5--5--5-|
E|-------------------------------------------------------------------------------------------------|-----------------------------------------------------------------------------------------------|

    
                                                                                                                                                                                                                                                                                                                                                                                                                                                                                                                                                                                                                                                                                                                                                                                                                                                                                                                                                                                                                                                                                                                                                                                              
E|-------------------------------------------------------------------------------------------------|-----------------------|
B|-------------------------------------------------------------------------------------------------|-----------------------|
G|--8--8--8--8--8--8--8--8--8--8--8--8--8--8--8--8--8--8--8--8--8--8--8--8--8--8--8--8--8--8--8--8-|10/--------------------|
D|--x--x--x--x--x--x--x--x--x--x--x--x--x--x--x--x--x--x--x--x--x--x--x--x--x--x--x--x--x--x--x--x-|-x/--------------------|
A|--6--6--6--6--6--6--6--6--6--6--6--6--6--6--6--6--6--6--6--6--6--6--6--6--6--6--6--6--6--6--6--6-|-8/--------------------|
E|-------------------------------------------------------------------------------------------------|-----------------------|

    
                                                                                                                                                                                                                                                                                                                                                                                                                                                                                                                                                                                                 
E|-------------------------|
B|-------------------------|
G|--12---------------------|
D|--x----------------------|
A|--10---------------------|
E|-------------------------|

    
                                                                                                                                                                                                                                                                                                                                                                                                                                                                                                                                                                                                                                                                                                                                                                                                                                                                                                                                                                                                                                                                                                                                                                                              
E|--------x--x----------------|---x--x--------x--x-------------|
B|--------x--x----------------|---x--x--------x--x-------------|
G|--------x--x----------------|---x--x--------x--x--0--0-------|
D|--------x--x----------------|---x--x--------x--x--0--0-------|
A|--------x--x----------------|---x--x--------x--x-------------|
E|--------x--x----------------|---x--x--------x--x-------------|

    
    G                                                                                                                                                                                                                                                                                                                                                                                                                                                                                                                                                                                             G                                                                                                                                                                                                                                                                                                                                                                                                                                                                                                                                                                                             
E|--3-------------------------|-----------------------|
B|--3-------------------------|-----------------------|
G|--4------------------4p5--4-|-----------------------|
D|--5-----5--------5----------|---5-------------------|
A|--5--5--------5-------------|---------5-------------|
E|--3-------------------------|------------------3----|

    
    B                                                                                                                                                                                                                                                                                                                                                                                                                                                                                                                                                                                             B                                                                                                                                                                                                                                                                                                                                                                                                                                                                                                                                                                                             
E|--7----------------------------|-----------------------|
B|--7----------------------------|-----------------------|
G|--8--8------9p8---------8p9--8-|-----------------------|
D|--9-----9-----------9----------|---9-------------------|
A|--9----------------------------|---------9-----9-------|
E|--7----------------------------|-----------------------|

    
                                                                                                                                                                                                                                                                                                                                                                                                                                                                                                                                                                                                                                                                                                                                                                                                                                                                                                                                                                                                                                                                                                                                                                                              
E|-------------------------------------------------------------------------------------------------|-----------------------------------------------------------------------------------------------|
B|-------------------------------------------------------------------------------------------------|-----------------------------------------------------------------------------------------------|
G|--5--5--5--5--5--5--5--5--5--5--5--5--5--5--5--5--5--5--5--5--5--5--5--5--5--5--5--5--5--5--5--5-|7--7--7--7--7--7--7--7--7--7--7--7--7--7--7--7--7--7--7--7--7--7--7--7--7--7--7--7--7--7--7--7-|
D|--x--x--x--x--x--x--x--x--x--x--x--x--x--x--x--x--x--x--x--x--x--x--x--x--x--x--x--x--x--x--x--x-|x--x--x--x--x--x--x--x--x--x--x--x--x--x--x--x--x--x--x--x--x--x--x--x--x--x--x--x--x--x--x--x-|
A|--3--3--3--3--3--3--3--3--3--3--3--3--3--3--3--3--3--3--3--3--3--3--3--3--3--3--3--3--3--3--3--3-|5--5--5--5--5--5--5--5--5--5--5--5--5--5--5--5--5--5--5--5--5--5--5--5--5--5--5--5--5--5--5--5-|
E|-------------------------------------------------------------------------------------------------|-----------------------------------------------------------------------------------------------|

    
                                                                                                                                                                                                                                                                                                                                                                                                                                                                                                                                                                                                                                                                                                                                                                                                                                                                                                                                                                                                                                                                                                                                                                                              
E|-------------------------------------------------------------------------------------------------|-----------------------------------------------------------------------------------------------|
B|-------------------------------------------------------------------------------------------------|-----------------------------------------------------------------------------------------------|
G|--8--8--8--8--8--8--8--8--8--8--8--8--8--8--8--8--8--8--8--8--8--8--8--8--8--8--8--8--8--8--8--8-|10-10-10-10-10-10-10-10-10-10-10-10-10-10-10-10-10-10-10-10-10-10-10-10-10-10-10-10-10-10-10-10|
D|--x--x--x--x--x--x--x--x--x--x--x--x--x--x--x--x--x--x--x--x--x--x--x--x--x--x--x--x--x--x--x--x-|x--x--x--x--x--x--x--x--x--x--x--x--x--x--x--x--x--x--x--x--x--x--x--x--x--x--x--x--x--x--x--x-|
A|--6--6--6--6--6--6--6--6--6--6--6--6--6--6--6--6--6--6--6--6--6--6--6--6--6--6--6--6--6--6--6--6-|8--8--8--8--8--8--8--8--8--8--8--8--8--8--8--8--8--8--8--8--8--8--8--8--8--8--8--8--8--8--8--8-|
E|-------------------------------------------------------------------------------------------------|-----------------------------------------------------------------------------------------------|

    
                                                                                                                                                                                                                                                                                                                                                                                                                                                                                                                                                                                                                                                                                                                                                                                                                                                                                                                                                                                                                                                                                                                                                                                              
E|-------------------------------------------------------------------------------------------------|-----------------------------------------------------------------------------------------------|
B|-------------------------------------------------------------------------------------------------|-----------------------------------------------------------------------------------------------|
G|--12-12-12-12-12-12-12-12-12-12-12-12-12-12-12-12-12-12-12-12-12-12-12-12-12-12-12-12-12-12-12-12|12-12-12-12-12-12-12-12-12-12-12-12-12-12-12-12-12-12-12-12-12-12-12-12-12-12-12-12-12-12-12-12|
D|--x--x--x--x--x--x--x--x--x--x--x--x--x--x--x--x--x--x--x--x--x--x--x--x--x--x--x--x--x--x--x--x-|x--x--x--x--x--x--x--x--x--x--x--x--x--x--x--x--x--x--x--x--x--x--x--x--x--x--x--x--x--x--x--x-|
A|--10-10-10-10-10-10-10-10-10-10-10-10-10-10-10-10-10-10-10-10-10-10-10-10-10-10-10-10-10-10-10-10|10-10-10-10-10-10-10-10-10-10-10-10-10-10-10-10-10-10-10-10-10-10-10-10-10-10-10-10-10-10-10-10|
E|-------------------------------------------------------------------------------------------------|-----------------------------------------------------------------------------------------------|

    
                                                                                                                                                                                                                                                                                                                                                                                                                                                                                                                                                                                                                                                                                                                                                                                                                                                                                                                                                                                                                                                                                                                                                                                              
E|-------------------------------------------------------------------------------------------------|-----------------------------------------------------------------------------------------------|
B|-------------------------------------------------------------------------------------------------|-----------------------------------------------------------------------------------------------|
G|--8--8--8--8--8--8--8--8--8--8--8--8--8--8--8--8--8--8--8--8--8--8--8--8--8--8--8--8--8--8--8--8-|11-11-11-11-11-11-11-11-11-11-11-11-11-11-11-11-11-11-11-11-11-11-11-11-11-11-11-11-11-11-11-11|
D|--x--x--x--x--x--x--x--x--x--x--x--x--x--x--x--x--x--x--x--x--x--x--x--x--x--x--x--x--x--x--x--x-|x--x--x--x--x--x--x--x--x--x--x--x--x--x--x--x--x--x--x--x--x--x--x--x--x--x--x--x--x--x--x--x-|
A|--6--6--6--6--6--6--6--6--6--6--6--6--6--6--6--6--6--6--6--6--6--6--6--6--6--6--6--6--6--6--6--6-|9--9--9--9--9--9--9--9--9--9--9--9--9--9--9--9--9--9--9--9--9--9--9--9--9--9--9--9--9--9--9--9-|
E|-------------------------------------------------------------------------------------------------|-----------------------------------------------------------------------------------------------|
tabs and chords, guitar tabs, music transcription, music technology, deep learning, music information retrieval, transcribe into tabs & chords, chordify, music renditions, songsterr, reverbnation, tabulature, bollywood chords, ultimate guitar, yousician, guitar lessons, acoustic guitar, electric guitar, guitar tuner, 911 tabs