Guitar Tabs for Radiohead - Creep

Radiohead - Creep

CAPO at 3rd Fret

Intro

(E) (G#) (A) (Am)


E|-----------------------------------------------
B|-----------------------------------------------
G|--------------1---------1h2--------1-----------
D|--------2--------2-----------2--------2--------
A|-----2-----2--------2-----------2--------2-----
E|--0-----------------------------------------0--

E|--------------------------------------------------
B|--------------------------------------------------
G|--------------5---------5h6--------5--------------
D|--------6--------6-----------6--------6-----6-----
A|-----6-----6--------6-----------6--------6-----6--
E|--4-----------------------------------------------

E|--------------------------------------------------------------------------------------
B|--------------2---------2h3--------2-----------------------1--------------1-----------
G|--------2--------2-----------2--------2-----------------2-----2--------------2--------
D|-----2-----2--------2-----------2--------2-----2-----2-----------2-----2--------2-----
A|--0-----------------------------------------0-----0-----------------0--------------0--
E|--------------------------------------------------------------------------------------


1st Verse

                   (E)                             (G#)
When you were here before, couldn't look you in the eyes

                    (A)                         (Am)
You're just like an angel, your skin makes me cry

                 (E)                      (G#)
You float like a feather in a beautiful world

             (A)                          (Am)
I wish I was special, you're so fucking special

Chorus

          (E)           (G#)
But I'm a creep, I'm a weirdo

                        (A)               (Am)
What the hell am I doing here? I don't belong here

2nd Verse

                   (E)                     (G#)
I don't care if it hurts, I wanna have control

                 (A)                      (Am)
I want a perfect body, I want a perfect soul

              (E)                    (G#)
I want you to notice when I'm not around

                  (A)                     (Am)
You're so fucking special, I wish I was special

Chorus

          (E)            (G#)
But I'm a creep, I'm a weirdo

                         (A)               (Am)
What the hell am I doing here? I don't belong here

Bridge

            (E)                 (G#)
Ooh Ooh, sheee's running out again...

(A)                     (Am)                
She's running out, she run, run, run...

(E)(G#)
Run..........

(A)(Am)
Run.........

3rd Verse

                  (E)                  (G#)
Whatever makes you happy, whatever you want

                  (A)                     (Am)
You're so fucking special, I wish I was special

Chorus

          (E)            (G#)
But I'm a creep, I'm a weirdo

                         (A)               (Am)
What the hell am I doing here? I don't belong here

          (E)
I don't belong here

E|-----------
B|-----------
G|-----------
D|---2/-4/6--
A|-----------
E|-----------

----------------------------------------------------------------------------------------------------
Chords

    E     G#    A     Am
E|--0-----4-----0-----0--
B|--0-----4-----2-----1--
G|--1-----5-----2-----2--
D|--2-----6-----2-----2--
A|--2-----6-----0-----0--
E|--0-----4--------------
tabs and chords, guitar tabs, music transcription, music technology, deep learning, music information retrieval, transcribe into tabs & chords, chordify, music renditions, songsterr, reverbnation, tabulature, bollywood chords, ultimate guitar, yousician, guitar lessons, acoustic guitar, electric guitar, guitar tuner, 911 tabs