Guitar Tabs for Quaver

Tabs for Song : 
BPM : 372


E|--------------------------------------------------0--------------------------------------------------------------------
B|--------------------------------------0--0--3--3-----1--------------------------------------1-----------------------3--
G|--------------0--0--------------1--1--------------------2-----2-----------------0--------------0--------2-----0--------
D|--------2--2--------------2--2-----------------------------2-----2-----2--0--------0--2-----------3--------3-----0-----
A|--3--3--------------3--3--------------------------------------------3--------1-----------3-----------3-----------------
E|-----------------------------------------------------------------------------------------------------------------------

E|-----------------------------------------------------------------------------
B|--0--------------------------------------------0-----------1-----------3-----
G|-----5--4--2-----------------------2-----0--------0--1--------1--3--------3--
D|--------------5--3--2--------3--------3-----2-----------1-----------3--------
A|-----------------------5--3-----3--------------------------------------------
E|-----------------------------------------------------------------------------

tabs and chords, guitar tabs, music transcription, music technology, deep learning, music information retrieval, transcribe into tabs & chords, chordify, music renditions, songsterr, reverbnation, tabulature, bollywood chords, ultimate guitar, yousician, guitar lessons, acoustic guitar, electric guitar, guitar tuner, 911 tabs