Guitar Tabs for Protecting My Devotion (lonlonjp Arrangements)

(/) Slide Up  (\) Slide Down  (h) Hammer On  (p) Pull Off  (b) Bend (r) Release (v) Vibrato (x) Muted
(k) hold
strumming pattern debut: bas haut bas bas haut bas bas, bas haut, bas bas repeat

Tabs for Song : 16~17s
capo at 3rd fret
Song lyrics here
E|-----------0-----0--2--0--------------
B|--0--2--3-----------------3--0-----0--
G|--------------------------------0-----
D|-----------0--------0--------2--------
A|--2--------------------------------2k-
E|--------------------------------------
-
E|--------------------2--0--------------
B|--2--3--------------------3--2-----0--
G|--------0-----0-----------------2-----
D|-----------------4--------------------
A|-----------------------------------2k-
E|--------3--------4--------3-----------

E|---------0-----0--2--0-------------
B|---2--3-----------------3--0-----0-
G|------------------------------0----
D|---------0--------0--------2-------
A|---------------------------------2r
E|-----------------------------------

E|-----2--0--------------------------
B|-----------3--2-----------2--0-----
G|--0--------------4--2--4-----------
D|-----------------------------4-----
A|--------------------0--------2-----
E|--0--------0-----------------------


//0:23
E|--5--------5-----3--2--0h-2---------2--5----
B|-----------2-----------------3--------------
G|--------2-----2--------------2--------------
D|-----2--------------0-----------------------
A|--0------------------------------------0----
E|--------------------------------------------

//---------------------------------------------voir 0:31
E|--5--0--2--3--2--0-------5--------5-----3--2--0p-2h----
B|--------------------3-------------2-----------------3--
G|-------------------------------2-----2--------------2--
D|----------------------------2--------------2-----------
A|-----1--------2----------0-----------------------------
E|-------------------------------------------------------

//---------------------------A
E|--2--0------0---------------------
B|---------------0--2--3--2----2----
G|-----------------------------2----
D|-----------------------------2----
A|------------------------0---------
E|-----4---------0------------------

//0:35

E|--5--------5-----3--2---0p-2h------2--5------5--0--2--3--2--0-----
B|-----------2------------------3--------------------------------3--
G|--------2-----2---------------2-----------------------------------
D|-----2--------------2---------------------------------------------
A|--0-----------------------------------0---------1--------2--------
E|------------------------------------------------------------------


//0:40

E|--2--------2-----0---------------------------1-----1--2---------
B|--------------------3------2--0--3--2-----2-----2-----2---------
G|-----------3---------------------------4--------------2----3----
D|--------4-----4---------------0-----------------------4---------
A|-----4------------------------------4--------2--------2---------
E|--2-----------------2---------------------------------2---------

//0:46 (same as beginning)
E|-----------0-----0--2--0--------------
B|--0--2--3-----------------3--0-----0--
G|--------------------------------0-----
D|-----------0--------0--------2--------
A|--2--------------------------------2k-
E|--------------------------------------
-
E|--------------------2--0--------------
B|--2--3--------------------3--2-----0--
G|--------0-----0-----------------2-----
D|-----------------4--------------------
A|-----------------------------------2k-
E|--------3--------4--------3-----------

E|---------0-----0--2--0-------------
B|---2--3-----------------3--0-----0-
G|------------------------------0----
D|---------0--------0--------2-------
A|---------------------------------2r
E|-----------------------------------

E|-----2--0--------------------------
B|-----------3--2-----------2--0-----
G|--0--------------4--2--4-----------
D|-----------------------------4-----
A|--------------------0--------2-----
E|--0--------0-----------------------


Paste any tab in acousterr's tab maker and we'll play it !!!
Now supports capo and sound effects for vibrato/pull-off/hammer/bends/mutes etc !!! Checkout help section
tabs and chords, guitar tabs, music contests, music covers, songsterr, reverbnation, renditions, tabulature, bollywood chords, ultimate guitar, yousician, guitar lessons, torrins, fender, gibson, acoustic guitar, electric guitar, youtube covers, gootar, guitar tuner, A-Z tabs, 911 tabs