Ukulele Tabs for Priscilla's Song (witcher 3) - Easy

Tabs for Song : 
BPM : 150

Song lyrics here 

       You   flee     my   come  morn--ing
                        dream the
A|--------------------------------2-----------
E|-----0--2--3-----------2--3--5--------0-----
C|-----------4--------4-----4-----4-----------
G|--------------------------------------------

       Your  scent berries
                         tart  lilac sweet
A|-----------------------0--------------------
E|-----0--2--3-----3--2--------3--2--3--------
C|-----------0-----------------------0--------
G|--------------------------------------------


       To    dream of raven locks          stormy
                               en-twist-ed
A|--------------------------------2-----5-----0-----2--------
E|-----0--2--3--------0--2--3--5-----------------------------
C|-----------4-----4--------4-----4--------------------------
G|-----------------------------------------------------------

       Of    violet                  as you
                   ey----es    glistening  weep
A|-----0-----------0-----2-----0--------------
E|-----------2--3-----------------3--2--3--2--
C|-----0-----------0--------------------------
G|-----------------------------0--------------
tabs and chords, guitar tabs, music transcription, music technology, deep learning, music information retrieval, transcribe into tabs & chords, chordify, music renditions, songsterr, reverbnation, tabulature, bollywood chords, ultimate guitar, yousician, guitar lessons, acoustic guitar, electric guitar, guitar tuner, 911 tabs