Ukulele Tabs for Priscilla's Song


A|--2--2--------2--0--------------------------------2--2-----5-----0-----2-----0-----------0-----2-----
E|--------0-----------0--0--2--3--2--3-----2--------------0-----0-----0-----0-----3--2--3-----0--------
C|-----4-----4-----2-----------0--------0--------------4-----------4-----------0-----------0-----2-----
G|-----------------------------------------4-----------------------------------------------------------

A|-----10-10-10-9-----7-----------------0--------------------------------0-----------------------
E|--0-----------------------0--0--2--3-----------3--2--3--2--3--2--3--2-----0--3--2--0-----0--2--
C|--0-----------------------0-----------2--------4-----------4-----------4-----------------------
G|-----------------------------------------------------------------------------------------------

A|--------------------------2-----------------------------------------0--------------------2--------------
E|--3-----3-----0--2--3--5-----0-----0-----0--0--2--------3--2--3-----------3--2--3--0--3-----2--0--2-----
C|--4--4-----4--------4-----4-----4-----4-----------------0--------0-----0--------0-----------2-----------
G|--------------------------------------------------------------------------------------------------------

A|--------------------------2-----5-----0-----2-----0-----------0-----2-----0-----------2-----
E|--3-----3-----0--2--3--5-----0-----0-----0-----------0--2--3-----0-----0-----3--2--3--------
C|--4--4-----4--------4-----4-----------4-----------0-----------0-----------0-----------4-----
G|--------------------------------------------------------------------------------------------

A|--10-9--10-9--10-9--10-9--10----------------10-9--10-9--10-9--10-9--10----------------
E|--0-----------0-----------0--0--3--7--2--------------0-----------0-----0--3--5--------
C|--------------------------------------------0-----------0-----------0-----------2-----
G|--------------------------------------------------------------------------------------

tabs and chords, guitar tabs, music transcription, music technology, deep learning, music information retrieval, transcribe into tabs & chords, chordify, music renditions, songsterr, reverbnation, tabulature, bollywood chords, ultimate guitar, yousician, guitar lessons, acoustic guitar, electric guitar, guitar tuner, 911 tabs