Ukulele Tabs for Konrad Kosmala - Priscilla's Song (the Witcher Iii) Ukulele (version Without Intro)

(/) Slide Up  (\) Slide Down  (h) Hammer On  (p) Pull Off  (b) Bend (r) Release (v) Vibrato (x) Muted

Tabs for Song : 
Konrad Kosmala - Priscilla's Song (The Witcher III) ukulele (version without intro)


Verse

A|--2--2--------2--0--------------------------2--2-----5-----0-----2-----0-----------0-----2--
E|--------0-----------0--0--2--3--2--3-----2v-------0-----0-----0-----0-----3--2--3-----0-----
C|-----4-----4-----4-----------0--------0--------4-----------4-----------0-----------0-----2--
G|-----------------------------------------4v-------------------------------------------------

A|-----10-10-10-9v-7v----------------0v-------------------------0--------------------
E|--0--------------------0--0--2--3-----3--2--3--2--3--2--3--2-----0--3--2--0v-0--2v-
C|--0-----------------0--------------2v-4-----------4-----------4--------------------
G|-----------------------------------------------------------------------------------

Refren

A|-----------------------2--------------------------------0-----------------------2-----------
E|--3-----3-----2--3--5-----0-----0-----0--0--2--3--2--3--------3--2-----3--0--3-----2v-0--2--
C|--4--4-----4-----4-----4-----4-----4-----------0-----0-----0--------0--------------2v-------
G|--------------------------------------------------------------------------------------------

A|--------------------------2-----5-----0-----2v-0-----------0-----2-----0--------------
E|--3-----3-----0--2--3--5-----0-----0-----0--------0--2--3-----0-----0-----3--2--3--2v-
C|--4--4-----4--------4-----4-----------4--------0-----------0-----------0--------------
G|-----------------------------------------------------------------------------------4v-

A|--10-9--10-9--10-9--10-9--10-------------10-9--10-9-----10-9--10-9-----10-------------
E|--0-----------0-----------0--0--3--7--2v-------------0--------------0-----0--3--5-----
C|-----------------------------------------0--------------0--------------0-----------2v-
G|--------------------------------------------------------------------------------------

A|--7v-
E|--3v-
C|--4v-
G|-----
tabs and chords, guitar tabs, music transcription, music technology, deep learning, music information retrieval, transcribe into tabs & chords, chordify, music renditions, songsterr, reverbnation, tabulature, bollywood chords, ultimate guitar, yousician, guitar lessons, acoustic guitar, electric guitar, guitar tuner, 911 tabs