Guitar Tabs for Practise 1

(/) Slide Up  (\) Slide Down  (h) Hammer On  (p) Pull Off  (b) Bend (r) Release (v) Vibrato (x) Muted

Tabs & Chords
BPM : 133.0
Check Track 2 for Chord Positions 

                                                                                                 
E|-----------------------------------------------------------------------------------------------
B|-----0-----------------------------------------------------------------------------------------
G|-----------------------------------------------------------------------------------------------
D|-----------7--------------------------7--8-----------7-----------------0-----------------------
A|--8-----------------------------7--7-----------9-----------9--9-----------------------------8--
E|-----------------11-11-9--8--------------------------------------11-11----7--7-----11-11-------

                                                                                              
E|--------------------------------------------------------------------------------------------
B|-----------------0--0-----------------0--7-----0--------------------------------0-----------
G|-----0-----7-----------------------------------------------0-----------------------8-----10-
D|--------7-----10----------10-10-8--10-------------7--8--------8--8--------------------------
A|--8--------------------11-------------------------------------------9-----11----------------
E|--------------------------------------------------------------------------------------------

                                                                                              
E|--------------------------------------------------------------------------------------------
B|--7--------------------------------------------------------------------------------------0--
G|--------------0-----0--------------------------8-----10----7-----0--0-----------------------
D|--------7--7-----------7--------------------------------------------------------------------
A|--------------------------11----------------7-----------------------------7--8--------------
E|-----------------------------11----9--11-11-------------------------------------11-11-------

                                                                                           
E|--------------------------------------------------------------------0--------------------
B|--------------------------------------------------------------------------0--------------
G|-----------------------------------------------------------0--------------------0--------
D|--------------------0-----------------7--------------------------------------------------
A|--------------7-----------7-----11----------------------9-----9--------------8-----7--7--
E|-----11-11-------11----------------------11-9--9-----8-----------------------------------

Guitar Tabs for Practise 1






                                                                                                 
E|-----------------------------------------------------------------------------------------------
B|-----------------------------------------------------------------------------------------------
G|-----------------------------------------------------------------------------------------------
D|-----------------------------------------------------------------------------------------------
A|-----------------------------------------------------------------------------------------------
E|-----------------------------------------------------------------------------------------------

                                                                                              
E|--------------------------------------------------------------------------------------------
B|--------------------------------------------------------------------------------------------
G|--------------------------------------------------------------------------------------------
D|--------------------------------------------------------------------------------------------
A|--------------------------------------------------------------------------------------------
E|--------------------------------------------------------------------------------------------

                                                                                              
E|--------------------------------------------------------------------------------------------
B|--------------------------------------------------------------------------------------------
G|--------------------------------------------------------------------------------------------
D|--------------------------------------------------------------------------------------------
A|--------------------------------------------------------------------------------------------
E|--------------------------------------------------------------------------------------------

                                                                                           
E|-----------------------------------------------------------------------------------------
B|-----------------------------------------------------------------------------------------
G|-----------------------------------------------------------------------------------------
D|-----------------------------------------------------------------------------------------
A|-----------------------------------------------------------------------------------------
E|-----------------------------------------------------------------------------------------

tabs and chords, guitar tabs, music transcription, music technology, deep learning, music information retrieval, transcribe into tabs & chords, chordify, music renditions, songsterr, reverbnation, tabulature, bollywood chords, ultimate guitar, yousician, guitar lessons, acoustic guitar, electric guitar, guitar tuner, 911 tabs