Bass Tabs for Pink Floyd - Young Lust

Pink Floyd - Young Lust

Verse
G|-----------------------------------------------------------------------------
D|-----------------------------------------------------------------------------
A|--------5--7-----------------------------5--7-----5--7------------------5h7--
E|--0--------------0--------5--5-----0--------------------0--0--0--------------

G|--------------------------------------------------------------------
D|--------------------------------------------------------------------
A|--------5--7-----------4--5--4--5-----------5--7-----5--7-----------
E|--0--------------0--------------------0--------------------0--0--0--

Pre Chorus
G|--------------------------------------------------------
D|-----5--5--3--3--2--2-----------------------------------
A|-----------------------5--5--3--3--2--2--------------7--
E|--3--------------------------------------5--5--0--------

Chorus
G|-----------------------------------------------------------------------------
D|-----------------------------------------------------------------------------
A|-----------------------------------------------------------------------------
E|---3/5--5-----5--5-----5--5-----5--5-----3--3-----3--3-----3--3-----3--4--5--

G|-----------------------------------------
D|-----------------------------------------
A|-----------------------------------------
E|--5--5-----5--5-----5--5-----5--5-----0--

2nd Verse
G|-----------------------------------------------------------------------------
D|-----------------------------------------------------------------------------
A|--------5--7-----------5-----------------5--7-----5--7------------------5h7--
E|--0--------------0-----------5-----0--------------------0--0--0--------------

G|---------------------------------------------------------------------------------------------
D|-----------------------------------------7---7h9--7--7--5------------------------------------
A|--------5--7--------------------7--7--10-------------------7--5--7--5--------------------/7--
E|--0--------------0-----5--5--------------------------------------------7--5--7--5--3--0------

Guitar Solo
G|------------------------------------------------
D|---------------------------------x-5-x-4--------  3x
A|-----7--5--7--5--7--5--7--5--7-x----------7-----
E|--0------------------------------------------3--

G|----------------------------------------------------
D|----------------------------------------------------
A|--------/7-----------/8-----------/9-----------/10\-
E|--0------------0------------0------------0----------

G|-----------------------------------------------------------------------------------------
D|--------5--5--3--3--2--2-----------------------------------------------------------------
A|--------------------------5--5--3--3--2--2-----------------------------------------------
E|--3--3--------------------------------------3--3--5-----5-----3--5--3--5--3--5--3--5--3--

G|--------------------------------------------------------------------------------------------------
D|--------5--5--------5--5--------5--5--------5--5--------------------------------------------------
A|-----------------------------------------------------------------------------------------------7--
E|--3--3--------3--3--------3--3--------3--3-----------5-----3--5--3--5--3--5--3--5--3--5--3--0-----

Pos Last Chorus
G|-----------------------
D|-----------------------
A|--7--5-----------------
E|--------7--6--5--3--0--
tabs and chords, guitar tabs, music transcription, music technology, deep learning, music information retrieval, transcribe into tabs & chords, chordify, music renditions, songsterr, reverbnation, tabulature, bollywood chords, ultimate guitar, yousician, guitar lessons, acoustic guitar, electric guitar, guitar tuner, 911 tabs