Bass Tabs for Pink Floyd - Time

Pink Floyd - Time

Beggining
G|--------------------------------------
D|--------------------------------------
A|--------------------------------------
E|--0--2--0--2--0--2--0--2--2--5--0--2--

Verse
G|-----------------------------------------------------------------------------------------------
D|-----------4--2--4--4--5--6--7-----------7-----7--7-----2--0--2--0--2--2--4-----------------4--
A|-----------------------------------7--7-----7--------------------------------4--4--4-----4-----
E|--------2-----------------------5--------------------0--------------------------------2--------

Chorus
G|-----------------------------------------------------------------------------------
D|-----------------------------------------7---------------------------------------2--
A|--5--5--5-----------7--5--5--5--------------5--5--5--4--4--4--2--2--2--------2-----
E|-----------5--5--5--------------5--5--5--------------------------------0--0--------

Chorus Pre-Breathe
G|--------------------------------------------------------------------------
D|--------------------------------------------------------------------------
A|--5--5--5-----------7--5--5--5-----------5--5--5--4--4--4--2--2--2---2/7--
E|-----------5--5--5--------------5--5--5-----------------------------------

Breathe Verse Part
G|-----9------7h9---7h9-----------------------9-----9-----------------9-----9\-0--------------------
D|--------------------------------------------------------------------------------------------------
A|--7-----7-----------------------4--5--6--7-----7-----------------------7--------------4--5--6--7--
E|-----------------------5--0--5-----------------------5--5--5--7--0--------------5--5--------------

Riff Before Breathe Chorus
G|-----------------
D|--7--5-----------
A|--------7--5--4--
E|-----------------

Breathe Chorus Part

G|-----------------------------------------------------------
D|--------5--------------4-----3---------------5-------------
A|--3--3-----3--2--2--2-----2--------------0-----5--(6)?--2--
E|--------------------------------1--1--1--------------------


tabs and chords, guitar tabs, music contests, music covers, songsterr, reverbnation, renditions, tabulature, bollywood chords, ultimate guitar, yousician, guitar lessons, torrins, fender, gibson, acoustic guitar, electric guitar, youtube covers, gootar, guitar tuner, A-Z tabs, 911 tabs