Bass Tabs for Pink Floyd - Take It Back

Pink Floyd - Take It Back

Intro
G|--------------------------------------
D|-------------------------------------- 4x
A|--------------3------------------3/5--
E|--3--------------------3--------------

Verse
G|--------------------------------------------------------------------
D|--------------------------------------------------------------------
A|--------------------------------------------------------------------
E|--3-----3-----3-----3-----3-----3-----3-----3-----3--3--0--1--2--3--

G|--------------------------------------------------
D|-------------------------------------------------- 2x
A|--------------------------------------------------
E|--3-----3-----3-----3-----3-----3-----3-----3-----

G|--------------------------------------------------
D|--------------------------------------------------
A|--3-----3-----3-----3-----3-----3-----3------3/5--
E|--------------------------------------------------

G|-----------------------------------------------------------
D|-----------------------------------------------------0--2-- 
A|--------------------------------------------0--2--3--------
E|--3-----3-----3-----3-----3-----3-----3--------------------

Chorus
G|--------------------------------------
D|--3-----3--3-----2-----2--2-----------
A|--------------------------------------
E|--------------------------------0--1--

Guitar Solo
G|-----------------
D|----------------- 8x
A|---3/---5--------
E|--------------3--

Ending
G|--------------------------------------------------------
D|--------------------------------------------------------
A|--3------------------3/---5-----------------3-----------
E|-----------3-----------------------3-----------------3--

G|---------------------5/---7--------
D|------------5h7--5-----------------
A|------5h7--------------------------
E|--3-----------------------------3--
tabs and chords, guitar tabs, music transcription, music technology, deep learning, music information retrieval, transcribe into tabs & chords, chordify, music renditions, songsterr, reverbnation, tabulature, bollywood chords, ultimate guitar, yousician, guitar lessons, acoustic guitar, electric guitar, guitar tuner, 911 tabs