Guitar Tabs for Hold It Back

(/) Slide Up  (\) Slide Down  (h) Hammer On  (p) Pull Off  (b) Bend (r) Release (v) Vibrato (x) Muted

Tabs for Song : Capo at 2nd fret


Intro:

   Em     G     D     C
E|--0-----3-----2-----0--
B|--0-----3-----3-----1--
G|--0-----0-----2-----0--
D|--2-----0-----0-----2--
A|--2-----2-----0-----3--
E|--0-----3-----0-----0--

Interlude

   |----------|X2
E|--0--2--0--2-----0--3--3--2--3--0--0-----0--3--0------
B|--0--2--1--3-----0--0--3--3--3--1--1-----0--3--0-----
G|--0--0--0--2-----0--0--0--2--2--0--0-----0--0--2--4--
D|--2--0--2--0-----2--2--0--0--0--2--0-----2--0--2--4--
A|--2--2--3--0-----2--2--2--0--0--3--3-----2--2--0--2--
E|--0--3--0--0-----0--0--3--0--0--0--0-----0--3--0-----

Verse / Chorus:

   Em     G     D   Dsus2   C    Csus2
E|--0-----2-----2-----2-----1-----0--
B|--0-----2-----3-----3-----1-----1--
G|--0-----0-----2-----0-----0-----0--
D|--2-----0-----0-----0-----2-----0--
A|--2-----2-----0-----0-----3-----3--
E|--0-----3-----0-----0-----0-----0--

Last Chorus:
                                |---------------------|X2
   Am     G     D     C          Em     G     D     C
E|--0-----3-----2-----0-----------0-----3-----2-----0--
B|--1-----3-----3-----1-----------0-----3-----3-----1--
G|--2-----0-----2-----0-----------0-----0-----2-----0--
D|--2-----0-----0-----2-----------3-----0-----0-----2--
A|--0-----2-----0-----3-----------3-----2-----0-----3--
E|--0-----3-----0-----0-----------0-----3-----0-----0--


Hold It Back

Well, I can't, but I won't
I wouldn't and I don't
Release me, show mercy
Release me from my body

I tried to hold it back
But the waves keep on crashing
Keep on crashing the bay
I try to go my way
But my will seems broken
Torn between foreign hands

And I won't start to hesitate
Live up to the promises
The ones I made
But I crush myself to pulp
Burn the rope I need
To get off the hole

I can't, but I won't
I wouldn't and I don't
Release me, show mercy
Release me from my body

And I don't hesitate
Live up to the promises
The ones I made
But I crush myself to pulp
Burn the rope I need
To get off the hole
Burn the rope I need
To get off the hole

Music: Markus Richter
Lyrics: Markus Richter
Arrangement: Leonie Wahl & Markus Richter
© Leonie Wahl & Markus Richter, 2018
tabs and chords, guitar tabs, music contests, music covers, songsterr, reverbnation, renditions, tabulature, bollywood chords, ultimate guitar, yousician, guitar lessons, torrins, fender, gibson, acoustic guitar, electric guitar, youtube covers, gootar, guitar tuner, A-Z tabs, 911 tabs