Guitar Tabs for Piece_melody1

(/) Slide Up  (\) Slide Down  (h) Hammer On  (p) Pull Off  (b) Bend (r) Release (v) Vibrato (x) Muted

Tabs for Song : 

Song lyrics here
E|-0-----------0--------------------------------------------------
B|-------------------------1--------0-----------0-----------------
G|-------0-----------2--------------------------------------1-----
D|----------------------------------------0-----------2-----------
A|----------------------------------------------------------------
E|----------------------------------------------------------------

E|---0-----------0-----------------------------------------------
B|---------------------------1--------0-----------0--------------
G|---------0-----------2--------------------------------------1--
D|------------------------------------------0-----------2--------
A|---------------------------------------------------------------
E|---------------------------------------------------------------

Song lyrics here
E|--------------
B|--0-----------
G|-----2--1--2--
D|--------------
A|--------------
E|--------------

Now supports capo and sound effects for vibrato/pull-off/hammer/bends/mutes etc !!! Checkout help section
tabs and chords, guitar tabs, music transcription, music technology, deep learning, music information retrieval, transcribe into tabs & chords, chordify, music renditions, songsterr, reverbnation, tabulature, bollywood chords, ultimate guitar, yousician, guitar lessons, acoustic guitar, electric guitar, guitar tuner, 911 tabs